Newsong - Take It All Text Guitar Tab

Learn song with the online tabulature player
Intro:

E 77772223333----|
B -----------333-|   Strumming may not be exact but its pretty close.
G ---------------|
D ---------------|
A ---------------|
E ---------------|


Verse:

E ----------------|
B ----------------|   And so on...
G 0-0---0-0---0-0-|
D -3-----3-----3--|
A ----------------|
E ----------------|

Pre - Chorus:
Am chord

Chorus:

E 77772223333----|
B -----------333-|   however many times it repeats...
G ---------------|
D ---------------|
A ---------------|
E ---------------|

Verse:

E ----------------|
B ----------------|   And so on...
G 0-0---0-0---0-0-|
D -3-----3-----3--|
A ----------------|
E ----------------|

Bridge:

Dm & Am chords

Chorus:

E 77772223333----|
B -----------333-|   however many times it repeats...
G ---------------|
D ---------------|
A ---------------|
E ---------------|