Newton Faulkner - Hello Text Guitar Tab

Learn the song with the online tablature player
E||------------------|---------------2---|----------------2--|   NUMBER 1
B||------------------|-------------------|-------3-----------|
G||------------------|-------2-----------|-------------------|
D||------------------|-------------------|-------------------|
A||------------------|-------------------|-------------------|
E||------------------|-------------------|-------------------|  ­
    do that 4 times, then...

E||------------------|---------------2---|----------------2--|   NUMBER 2
B||------------------|-------------------|-------3-----------|
G||------------------|-------0 ----------|-------------------|
D||------------------|-------------------|-------------------|
A||------------------|-------------------|-------------------|
E||------------------|-------------------|-------------------|  ­

then that 4 times. so in order...
number 1 X4
number 2 X4
number 1 X4
number 2 X4
number 1 X4
number 2 X4
number 1 X4
number 2 X4
number 3

then at the end its.
E||------------------|--------------2----|-------------------|   NUMBER 3
B||------------------|--------------3----|-------------------|
G||------------------|-------- -----2----|-------------------|
D||------------------|--------------0----|-------------------|
A||------------------|-------------------|-------------------|
E||------------------|-------------------|-------------------|

really do hope that made sense, and hope it helped. :)