Nice Stupid Playground - Stereo Girl Text Guitar Tab

Learn the song with the online tablature player
Intro
D   C#/D   B   A   G   F#/G   G   A

[INTRO & VERSE]

    D     C#/D      B        A       G     F#/G      G        A
e----------------------------------------------------------------------|
B----------------------------------------------------------------------|
G----------------------------------------------------------------------|
D---7-------7--------4-------2-----------------------------------------| x4
A-55-5----44-4----/22-2----00-0------5-------5-------5--------7--------|
E----------------------------------33-3----22-2----33-3----/55-5-------|

  As I open the door then it started to rain
  And the TV is gone for another day

PRE-CHORUS

     Em    G     D     A        Em    G     A
e----0-----2-----2-----0---|----0-----2-----0----------------|
B----0-----2-----3-----2---|----0-----2-----2----------------|
G----0-----0-----2-----2---|----0-----0-----2----------------|
D----2-----0-----0-----2---|----2-----0-----2----------------|
A----2-----2-----0-----0---|----2-----2-----0----------------|
E----0-----3-----0-----0---|----0-----3-----0----------------|

  What I feel was sour the otherside
  Do you feel the cryin'?

CHORUS

      D    Em    G     A
e-----2----0-----2-----0----|
B-----3----0-----2-----0----|
G-----2----0-----0-----2----|
D-----0----2-----0-----2----|  Repeat 4x
A-----0----2-----2-----2----|
E-----0----0-----3-----0----|

 (Stay..) Stay for a while..
 We can make it happen(ooh..ooh..)
 Gonna have too much fun(we gonna have too much fun)

 (Stay..) Stay for tonight..
 Gonna make things happen(ooh..ooh)
 Gonna have some teenage fun..

 I remember the way you slept last night

-REPEAT PRE-CHORUS & CHORUS-

BRIDGE

    D     C#/D      B        A       G     F#/G      G        A
e----------------------------------------------------------------------|
B----------------------------------------------------------------------|
G----------------------------------------------------------------------|
D---7-------7--------4-------2-----------------------------------------| x2
A-55-5----44-4----/22-2----00-0------5-------5-------5--------7--------|
E----------------------------------33-3----22-2----33-3----/55-5-------|

 It's gonna be alright..
 You're a stereo girl..

SOLO
D - Em - G - A  4x
(The solo is not played by guitar but i simply turned it into guitar's sound)

e--------------------------------------------------------------------|
B--------------------------------------------------------------------|
G---11~-----11-h12--14--12-11-12------------------11-9--------12~----|
D--------12---------------------12~---------12-12-------12--12-------|
A--------------------------------------------------------------------|
E--------------------------------------------------------------------|
                                                                        Repeat 2x
e--------------------------------------------------------------------|
B---11~----11-h12--14--12-11-12---------15-15-15---------------------|
G--------12--------------------12~--------------12-11---9-h12~-------|
D--------------------------------------------------------------------|
A--------------------------------------------------------------------|
E--------------------------------------------------------------------|

(OUTRO):Repeat Intro Riff till fade,end with D

  ~=Let Ring
  h=hammer
  /=slide