Nick Cave And The Bad Seed - More News From Nowhere Text Guitar Tab

Learn the song with the online tablature player
Riff
-------------------------------------|
-------------------------------------|
-5-3-2-------------5-3-2-----2s3-----|
-------3-----------------3-----------|
-----------5-------------------------|
-------------------------------------|

verse
  F   A#

chorus
F              A#
more news from nowhere
F              A#
more news from nowhere
Gm               C
and it's getting strange in here
Gm               C
and it's getting stranger every year*

*note:
the bass plays something like this over "every year":
---------------|
---------------|
---------------|
---------------|
-3-1-0---------|
-------1-------|