Nick Cave - The Road Text Guitar Tab

Learn song with the online tabulature player
-------------------------------------------------------------------------------
                             The Road - Nick Cave and Warren Ellis
-------------------------------------------------------------------------------
Tabbed by: javax6
Email: 

Tuning: Standard

Piano transcribed for Guitar.

e|-------8-| -----------------------------------------------------------------|
B|----10---| -----------------------------------------------------------------|
G|-10------| X6 --------------------------------------------------------------|
D|---------| -----------------------------------------------------------------|
A|---------| -----------------------------------------------------------------|
E|---------| -----------------------------------------------------------------|

e|------8--| -----------------------------------------------------------------|
B|---10----| -----------------------------------------------------------------|
G|-9-------| X4 --------------------------------------------------------------|
D|---------| -----------------------------------------------------------------|
A|---------| -----------------------------------------------------------------|
E|---------| -----------------------------------------------------------------|

e|------8--| -----------------------------------------------------------------|
B|---10----| -----------------------------------------------------------------|
G|-7-------| X4 --------------------------------------------------------------|
D|---------| -----------------------------------------------------------------|
A|---------| -----------------------------------------------------------------|
E|---------| -----------------------------------------------------------------|

e|------8--| -----------------------------------------------------------------|
B|---10----| -----------------------------------------------------------------|
G|-9-------| X2 --------------------------------------------------------------|
D|---------| -----------------------------------------------------------------|
A|---------| -----------------------------------------------------------------|
E|---------| -----------------------------------------------------------------|

e|-----7---| -----------------------------------------------------------------|
B|---8-----| -----------------------------------------------------------------|
G|-7-------| X8 --------------------------------------------------------------|
D|---------| -----------------------------------------------------------------|
A|---------| -----------------------------------------------------------------|
E|---------| -----------------------------------------------------------------|

What I think the Violin sounds like on Guitar.

e|-------------------|--------------------------------------------------------|
B|-------------------|--------------------------------------------------------|
G|-------------------|--------------------------------------------------------|
D|-------------------|--------------------------------------------------------|
A|-------------5-7~~-|--------5-7~~-------------------------------------------|
E|-8~~--7-8-10-------|-7-8-10--------8~~---7-7~~------------------------------|

************************************

| /   slide up
| \   slide down
| h   hammer-on
| p   pull-off
| ~   vibrato
| +   harmonic
| x   Mute note
| b   Bend
| pb  Pre-bend
| br  Bend release
| pbr Pre-bend release
| brb Bend release bend

************************************

Link:
http://www.nickcaveandwarrenellis.com/works