Nick Drake - Harvest Breed Text Guitar Tab

Learn the song with the online tablature player
HARVEST BREED- Nick Drake

RIFF 3 TIMES  RIFF 2

RIFF
Falling fast and falling free, you look to find a friend
RIFF
Falling fast and falling free, this could just be the end
RIFF
Falling fast you stoop to touch and kiss the flowers that bend
                 RIFF 2
And you're ready now
                 RIFF
For the harvest breed

RIFF 2 MORE TIMES, RIFF 2, PLAY RIFF TILL X FOR ENDING

MAIN RIFF:                                  *
F# ------------------------------------------------------------------|
D  -------0---------------0---------------0---------------0----------|
G  -----0-----0---0-----0-----0---0-----0-----0---0-----0-----0---0--|
D  ---3-----3---3-----4-----4---4-----5-----5---4-----2-----2---2----|A
---------------------------------------------------------------------|
D  -0---------------0---------------0---------------0----------------|
                                X                          *

RIFF 2
F# -------1-------1------|
D  ---0-----0-------0----|
G  -----0-------0--------|
D  -2---------2-------2--|
A  -0---------0----------|
D  ----------------------|