Nick Drake - Introduction Text Guitar Tab

Learn the song with the online tablature player
E |--------------------------2-------------------------|
B |-----------------3-----------3----------------------|
G |--------------5-----5-----------5-------------------|
D |-----------0-----------0-----------0----------------|
A |--------0-----------------------------0-----0-------|
D |--0-------------------------------------------------|

--------------------------2-------------------------|
-----------------3-----------------3----------------|
--------------4--------4--------4-----4-------------|
-----------0--------0--------0-----------0----------|
--------0-----------------------------------0-------|
--0-------------------------------------------------|

--------------------------2-------------------------|
-----------------3-----------------3----------------|
--------------0--------0--------0-----0-------------|
-----------4--------4--------4-----------4----------|
--------0-----------------------------------0-------|
--0-------------------------------------------------|

--------------------------2-------------------------|
-----------------3-----------------3----------------|
--------------2--------2--------2-----2-------------|
-----------0--------0--------0-----------0----------|
--------0-----------------------------------0-------|
--0-------------------------------------------------|

--------------------------3-------------------------|
-----------------3-----------------3----------------|
--------------4--------4--------4-----4-------------|
-----------0--------0--------0-----------0----------|
--------0-----------------------------------0-------|
--0-------------------------------------------------|

--------------------------2-------------------------|
-----------------3-----------------3----------------|
--------------4--------4--------2-----2-------------|
-----------0--------0--------0-----------0----------|
--------0-----------------------------------0-------|
--0-------------------------------------------------|

--------------------------2--------0----------------|
-----------------3--------------------------3-------|
--------------0--------0--------0--------0----------|
-----------4--------4--------4--------4-------------|
--------0-------------------------------------------|
--0-------------------------------------------------|

--------------------------2-------------------------||
-----------------3-----------3-----3----------------||
--------------2--------2--------2-----2-------------||
-----------0--------0--------------------0----------||
--------0-----------------------------------0-------||
--0-------------------------------------------------||