Nick Drake - Time Of No Reply Text Guitar Tab

Learn the song with the online tablature player
Time Of No Reply - Nick Drake

Riff

|-----0--|-----0--|---5----|-----12*|
|---0--0-|---7--7-|----5---|---0-12*|
|--0-0---|--9-9--0|--5--5--|--0-----|
|-9-----9|-7------|-5----5-|-0------|
|7-------|6-------|5------5|0-------|
|--------|--------|--------|--------|

Verse

|------0-|--------|    |------0-|------0-|--------|--------|
|---0----|---0----|    |---0----|---0----|---0---0|---5---0|
|--0-----|--0-2---| x2 |--0-----|--0-----|--0---9-|--5---0-|  x2
|-9---7-7|-5---0--|    |-A---9-9|-A---9--|-9---7--|-5---0--|
|7---5---|4---2---|    |9---7---|9---7---|7---6---|5---0---|
|--------|------0-|    |--------|--------|--------|--------|
                        (For A read 10)

Riff

|-----0--|-----0--|---5----|-----12*|
|---0--0-|---7--7-|----5---|---0-12*|
|--0-0---|--9-9--0|--5--5--|--0-----|
|-9-----9|-7------|-5----5-|-0------|
|7-------|6-------|5------5|0-------|
|--------|--------|--------|--------|

Bridge bit

|--------|-----0--|    |--------|--------|
|---0----|---0--0-|    |---0----|---0----|
|--0-0---|--0-0---| x3 |--0-0---|--0-2---|
|-5---5-5|-3-----3|    |-1---1-1|-0------|
|7--7--7-|5--5--5-|    |3--3--3-|2-------|
|--------|--------|    |--------|----0---|

Verse

|------0-|--------|    |------0-|------0-|--------|--------|
|---0----|---0----|    |---0----|---0----|---0---0|---5---0|
|--0-----|--0-2---| x2 |--0-----|--0-----|--0---9-|--5---0-|
|-9---7-7|-5---0--|    |-A---9-9|-A---9--|-9---7--|-5---0--|
|7---5---|4---2---|    |9---7---|9---7---|7---6---|5---0---|
|--------|------0-|    |--------|--------|--------|--------|
                        (For A read 10)

Little link:

|--------|--------|
|---0---7|---5--0-|
|--0---9-|--5---0-|
|-9---7--|-5---0--|
|7---6---|5---0---|
|--------|--------|

Verse

|------0-|--------|    |------0-|------0-|--------|--------|
|---0----|---0----|    |---0----|---0----|---0---0|---5---0|
|--0-----|--0-2---| x2 |--0-----|--0-----|--0---9-|--5---0-|
|-9---7-7|-5---0--|    |-A---9-9|-A---9--|-9---7--|-5---0--|
|7---5---|4---2---|    |9---7---|9---7---|7---6---|5---0---|
|--------|------0-|    |--------|--------|--------|--------|
                        (For A read 10)

Little link:

|--------|--------|
|---0---7|---5--0-|
|--0---9-|--5---0-|
|-9---7--|-5---0--|
|7---6---|5---0---|
|--------|--------|

Bridge bit

|--------|-----0--|    |--------|--------|
|---0----|---0--0-|    |---0----|---0----|
|--0-0---|--0-0---| x3 |--0-0---|--0-2---|
|-5---5-5|-3-----3|    |-1---1-1|-0------|
|7--7--7-|5--5--5-|    |3--3--3-|2-------|
|--------|--------|    |--------|----0---|

Verse

|------0-|--------|    |------0-|------0-|--------|--------|
|---0----|---0----|    |---0----|---0----|---0---0|---5---0|
|--0-----|--0-2---| x2 |--0-----|--0-----|--0---9-|--5---0-|
|-9---7-7|-5---0--|    |-A---9-9|-A---9--|-9---7--|-5---0--|
|7---5---|4---2---|    |9---7---|9---7---|7---6---|5---0---|
|--------|------0-|    |--------|--------|--------|--------|
                        (For A read 10)

Riff

|-----0--|-----0--|---5----|-----12*|
|---0--0-|---7--7-|----5---|---0-12*|
|--0-0---|--9-9--0|--5--5--|--0-----|
|-9-----9|-7------|-5----5-|-0------|
|7-------|6-------|5------5|0-------|
|--------|--------|--------|--------|