Nick Jonas And The Administration - State Of Emergency Text Guitar Tab

Learn the song with the online tablature player
this is only what nick plays

this are the chords
E: |x|7|9|x|9|x|

D#: |x|6|8|x|8|x|

G#5: |4|6|x|x|x|x|

C#: |x|4|6|x|6|x|

F#': |x|9|11|x|11|x|

B7: |7|9|8|x|x|x|

E7: |x|7|9|8|x|x|

G#7: |4|6|5|x|x|x|

C#7: |x|4|6|5|x|x|

F'5: |x|8|10|x|x|x|

E5: |x|7|9|x|x|x|

D#5: |x|6|8|x|x|x|

D5: |x|5|7|x|x|x|

INTRO
e|-----------------------|
B|-----------------------|
G|-----------------------|
D|-----------------------|  x2
A|-6-5-4-2------6-5-4-2~-|
E|---------4-------------|

VERSE
x2)
e|--xx-xx--|
B|--xx-xx--|
G|--xx-xx--|
D|--xx-xx--|   x8
A|--xx-xx--|
E|-4xx4xx--|

e|--xx-xx--|
B|--xx-xx--|
G|--xx-xx--|
D|--xx-xx--|   x2
A|-4xx4xx--|
E|--xx-xx--|

e|--xx-xx--|
B|--xx-xx--|
G|--xx-xx--|
D|--xx-xx--|   x4
A|--xx-xx--|
E|-4xx4xx--|

CHORUS
E   D#   G#5   C#
E   D#   G#5   C#   D#
E   F#    G#   C#
E   D#   E   D#

INTRO
e|-----------------------|
B|-----------------------|
G|-----------------------|
D|-----------------------|  x2
A|-6-5-4-2------6-5-4-2~-|
E|---------4-------------|

VERSE
e|--xx-xx--|
B|--xx-xx--|
G|--xx-xx--|
D|--xx-xx--|   x8
A|--xx-xx--|
E|-4xx4xx--|

e|--xx-xx--|
B|--xx-xx--|
G|--xx-xx--|
D|--xx-xx--|   x2
A|-4xx4xx--|
E|--xx-xx--|

e|--xx-xx--|
B|--xx-xx--|
G|--xx-xx--|
D|--xx-xx--|   x4
A|--xx-xx--|
E|-4xx4xx--|

CHORUS
E   D#   G#5   C#
E   D#   G#5   C#   D#
E   F#    G#   C#
E   D#   E   D#

BRIDGE
B7   E7   B7   E7
G#7   C#7   G#7   C#7

F'5 - E5 - D#5 - D5 x2

INTRO
e|-----------------------|
B|-----------------------|
G|-----------------------|
D|-----------------------|  x2
A|-6-5-4-2------6-5-4-2~-|
E|---------4-------------|

CHORUS
E   D#   G#5   C#
E   D#   G#5   C#   D#
E   F#    G#   C#
E   D#   E   D#   E   D#

OUTRO
e|-----------------------------------------------------------------|
B|-----------------------------------------------------------------|
G|-----------------------------------------------------------------|
D|-----------------------------------------------------------------|
A|-11-10-9-8-7-6-------6-9-10-11-10-9-8-7-6-------6-9-10-11--11-11-|
E|---------------4-7-9----------------------4-7-9------------------|

RATE AND COMMENT PLEASE :D :D