Nickel Creek - I Shouldve Known Better Text Guitar Tab

Learn the song with the online tablature player
e-----18-15-------------------------------------------------------------|
B---18-----15-18-18b20r18b20-18-15--------------------------------------|
G-19------------------------------18-17-15------------------------10-12-|
D------------------------------------------17-15-12-11-10-8-7-----------|
A------------------------------------------------------------11-10------|
E-----------------------------------------------------------------------|

e---------------------------------------------------10-11-17-18-20------|
B----------------------11-11---------14-14-11--10-11--------------------|
G------12-------------------12------------------------------------------|
D-10/12---11-10--10/12---------10/12------------------------------------|
A-----------------------------------------------------------------------|
E-----------------------------------------------------------------------|

e-20b22-20-18---20b22-20-18--22b25-22-18-22-(15-17-18-18-18-15v)---------|
B------------20------------20--------------------------------------------|
G------------------------------------------------------------------------|
D------------------------------------------------------------------------|
A------------------------------------------------------------------------|
E------------------------------------------------------------------------|