Nickel Creek - When In Rome Text Guitar Tab

Learn the song with the online tablature player
e-------------------------------------------20--17--15-13-------------|
B-----10---13--13/15---15-15/18-17-15--------------------15-13/15-----|
G---7----7-----7--------------------------7---------------------7--7--|
D---------------------------------------------------------------------|
A---------------------------------------------------------------------|
E---------------------------------------------------------------------|

e--------------------------------------------------------------|
B-----10---13--13/15--15-15/18-17-15--12-10--------------------|
G---7----7-----7-------------------------7-------10h12-12-12---|
D--------------------------------------------------------------|
A--------------------------------------------------------------|
E--------------------------------------------------------------|

e-------------------------------------------20--17--15-13-------------|
B-----10---13--13/15---15-15/18-17-15--------------------15-13/15-----|
G---7----7-----7--------------------------7---------------------7--7--|
D---------------------------------------------------------------------|
A---------------------------------------------------------------------|
E---------------------------------------------------------------------|

e----------------------------------------------------------------------------------------|
B-----10---13--13/15--15-15/18-17-15--12-10----------------------------------------------|
G---7----7-----7-------------------------7-------10h12-12-12---12-10-7-10-10h12--12-10-7-|
D----------------------------------------------------------------------------------------|
A----------------------------------------------------------------------------------------|
E----------------------------------------------------------------------------------------|

e----------------|
B----------------|
G----------------|
D---10--10h12----|
A----------------|
E----------------|