Nickelback - Dc Text Guitar Tab

Learn the song with the online tablature player
Intro
before he starts to sing of course)
E---------------------------------------|I
B---------------------------------------|I
G-------------------------------I-------|  x4
D----------------5-3--------------------|I
A-----------0h3-------5-3-(0)-----------|I
E---------------------------------------|I

verse
E--------------------------------------------------------------------------|
B--------------------------------------------------------------------------|
G------------------------------------------------5-3-2------------5-3-2----|
D-------5-3------------------5-3-------------0h3------3-0-----0h3------3-0-|
A---0h3------5-3-(0)-----0h3------5-3-(0)----------------------------------|
E--------------------------------------------------------------------------|

--------------------|
--------------------|
-------5-3----------|
---0h3------5-3-----|(0) 2X (listen to the song for the structure)
--------------------|
--------------------|

chorus
or whatever it is they play right after the verse)
E---------------------|I
B---------------------|I
G---3----1----(3)-----|I
D---5----3----(5)-----|I
A---5----3----(5)-----|I
E---------------------|I

When you listen to the song,you can hear him play the verse, then the 'chorus' and right
after he just plays the intro bit. he repeats this three times, then goes back to the verse.
The outro is a little bit like the verse, but its kinda hard to hear what he does
exactly.....was kinda hopin someone else knows to do it....