Nickelback - One Last Run Text Guitar Tab

Learn the song with the online tablature player
Extremely simple Nickelback B-side, that is still pretty cool, even though
it's easy. The CD Overall is AMAZING, I'm glad it won the band the "Best
new group" award at the 2001 Junos.

Intro/All 3 Verses:
e -------------|-------------------------------------------------------------
B -------------|-------------------------------------------------------------
G -------------|------------5-5-5-5-5--10-10-10-10-10------------------------
D -on & on-----|-5-5-5-5-5--5-5-5-5-5--10-10-10-10-10--8-8-8-8-8--5-5-5-5-5--
A -------------|-5-5-5-5-5--3-3-3-3-3--8--8--8--8--8---8-8-8-8-8--5-5-5-5-5--
E -3-1-3-1-3-1-|-3-3-3-3-3-----------------------------6-6-6-6-6--3-3-3-3-3--

Chorus
Play first part 3 times, second part once.
e ----------------------------------|-------------------------------------------
B ----------------------------------|-------------------------------------------
G -8/5-5-5-5-5--8-8/10-10-10-10-10--|-8-8-8-8-8-8-8-8--10-10-10-10-10-10-10-10--
D -8/5-5-5-5-5--8-8/10-10-10-10-10--|-8-8-8-8-8-8-8-8--10-10-10-10-10-10-10-10--
A -6/3-3-3-3-3--6-6/8--8--8--8--8---|-6-6-6-6-6-6-6-6--8--8--8--8--8--8--8--8---
E ----------------------------------|-------------------------------------------

Bridge has the same chords and pattern as the Intro/Verse

During the last part I can hear some notes on the 6th fret on the B string
They gradually bend higher.

Chords: G5: 355xxx   A#5: 688xxx   C5: x355xxx   D#5: x688xx   F5: x81010xx