Nico - Eulogy To Lenny Bruce Text Guitar Tab

Learn the song with the online tablature player
      Intro                 Part 1
------5---------5------|------------------2---2-----------------2--
------3---------3------|------3----3------0---0------3---3------0--
----0---------0--------|------0----0------0---0------0---0------0--
--4------4--0------4/2-|------2----2-----------------2---2---------
-----------------------|---2------------2----------2----------2----
-----------------------|-0-------0----0-----0----0-----0----0------

-----0----------0----------0----------0----------------
---------0----------0----------0-----------0-----------

---2----------2----------2----------2------------------
-0-----0----0-----0----0-----0----0------0-------------

              Part 2

-----3-----------3----------3---------3----
-----2-----------2----------2---------2----
-----0-----------0----------0---------0----
---0---0-------0---0------0---0-----0---0--
-2-----------2----------2---------2--------
|-----------0h2-------0h2----------------------------
|------3--------3---3-----3---3-------3---3----3---3-
|------2-2--------2---------2---------2-2-2----0---0-
|----0------------------------------0----------2---2-
|--------------------------------------------2-------
|--2-----------------------------2---------0-----0---

-----2---2---------------------------|
-----0---0------3----3---------------|
-----0---0------0----0---------------|
----------------2----2---------------|
---2----------2----2-----------------|
-0-----0----0------------------------|

                Part 4 for future reference

------2---------2----------4-----------5-----------8-------------
(RepeatEach Chord Repeats Twice.)

                        Part 5
-8/0-0-------0----0-----0----0-----0----0----------0-----------0------

-----3-----------3------------3-------3----------3--------3---3-
-----2-----------2------------0-------0----------2-2--------2---
-----0-----------0------------2-------2--------0----------------
---0---0-------0---0--------2---2---2---2------------0----------
-2-----------2------------0-------0----------2------------------

------3-------3--3-------3-------3--------3-----------3----------3---------3-
------0-------0--0-------0-------0--------2-----------2----------2---------2-
------2-------2--2-------2-------2--------0-----------0----------0---------0-
----2---2---2----------2---2---2---2----0---0-------0---0------0---0-----0--0
--0-------0----------0-------0--------2-----------2----------2---------2-----

                                     Play part 4
                                           |
-0-------0----0-----0----0-----0----            -8/0-0-------0----0-----0----
-8/0-0-------0----0-----0----                -8/0-0-------0---0---------        Repeat twice

    Part 6
------5---------5---------5---------5-----
------3---------3---------3---------3-----
----0---------0---------0---------0-------
--4------4--0------4--0------4--0-----4/2-

play part 1 | play part 2| part 1| Part 4

 Continue Part 2

------5---------5--------------------------2---
------3---------3----------3---3---------0-----
----0---------0------------0---0-------0-------
--4------4--0-----4/2------2---2-----2---------