Nico Vega - Burn Burn Text Guitar Tab

Learn song with the online tabulature player
This song is basically just two parts, one for the verse and prechorus and the 
other for the chorus

Riff 1
e---------------------------------------------------------------------------|
B---------------------------------------------------------------------------|
G---------------------------------------------------------------------------|
D---------------------------------------------------------------------------|
A---------------------5-8-5-8-5-8-5-8--7-10-7-10-7-10-7-10--9-12-9-12-9-12--|
E-7-10-7-10-7-10-7-10-------------------------------------------------------|

e-----------|
B-----------|
G-----------|
D-----------|
A--9-11-12--|
E-----------|

Riff 2
e----------------------------------------------------------------------------|
B-12--10-12--7~-------7~--12--10-12--7~--------------------------------------|
G---------------9-9-7-------------------9-9-7-6~-----------------------------|
D----------------------------------------------------------------------------|
A----------------------------------------------------------------------------|
E----------------------------------------------------------------------------|

And thats really it...

http://www.myspace.com/nicovega