Nicolo Paganini - 5th Caprice Text Guitar Tab

Learn the song with the online tablature player
I havent seen the intro part before it gets fast tabbed out, so i tried myself... x.x
E|-----------------------------------------------------------------|
B|-----------------------------------------------------------------|
G|------------------------------12/14--13h14p13h14p13h14p13\-------|
D|-------------------------14--------------------------------------|
A|-12--11h12p11h12p11/14--------------------------------------12---|
E|-----------------------------------------------------------------|

E|-----------------------------------------------------------------------------|
B|-----------------------------------------------------------------------------|
G|--------------------------12/14/16 17--17p16\14-13h14p13h14p13h14p13\--------|
D|----------------------14-----------------------------------------------------|
A|---11h12p11h12p11/14----------------------------------------------------12---|
E|-----------------------------------------------------------------------------|

E|--------------------------------------------------------------------------------|
B|--------------------------------------------------------------------------------|
G|---------------------------12/14/16/17--21--21\14--13h14p13h14p13h14p13\--------|
D|----------------------14--------------------------------------------------------|
A|---11h12p11h12p11/14-------------------------------------------------------12---|
E|--------------------------------------------------------------------------------|