Niet - Sranje Text Guitar Tab

Learn the song with the online tablature player
e|--------------------|
B|--------------------|
G|-15-15-15-15-17-14--|
D|--------------------|
A|--------------------|
E|--------------------|

A
Aaaaaaaaaaaaa    (2x)

En, dva, tri, štir'.

A             C           G          D
Oskrunjena nedolžnost, tako veliki obeti,
A              C        G       D
Golo otroško truplo z brizgo v žili.
     A         C       G     D
Srhljivo šelestenje krvavih listov,
   A       C     G         D
Zasopla telesa, čakanje na smrt.

e|--------------------|
B|--------------------|
G|-15-15-15-15-17-14--|
D|--------------------|
A|--------------------|
E|--------------------|

Deževna so jutra in rdeča je svetloba,
Črn cvet na dlani, le kje je pot v raj.
Temne so ul'ce, iskala je ljubezen,
otrok s skodel'co polno krvi.

e|-------------10----------|------------------|------------------|-----------------|----|
B|-10-13-12-13----13-12-13-|---10-9-10-12--12-|---10-9-10-12--12-|-12-10-9---------|----|
G|-------------------------|-9----------------|-9----------------|---------9-11--9-|----|
D|-------------------------|------------------|------------------|-----------------|----|
A|-------------------------|------------------|------------------|-----------------|-12-|
E|-------------------------|------------------|------------------|-----------------|----|