Niet - Zastave Text Guitar Tab

Learn the song with the online tablature player
Niet - Zastave

0.00
e|------------------------------------------------|
H|------------------------------------------------|
G|------------------------------------------------|
D|-6--5--6--5--6--5--8--8--8--7--8--7--8--5--5--5-|
A|-6--5--6--5--6--5--8--8--8--7--8--7--8--7--5--5-|
E|-4--3--4--3--4--3--6--6--6--5--6--5--6--5--3--3-|

Sonce zahaja, mene je strah.
Hladni veter vzdiguje prah.
Spomini, asociacije, vizije prihodnosti.

0.13
e|------------------------|
H|------------------------|
G|-5----------------------|
D|-5--7--5--5--7--5--3—-3-|
A|-3--7--5--5--7--5--3—-3-|
E|----5--3--3--5--3--1--1-|

Temne sence padajo na nas.
Zastave plapolajo v vetru.

0.25
e|------------------------------------------------|
H|------------------------------------------------|
G|------------------------------------------------|
D|-6--5--6--5--6--5--8--8--8--7--8--7--8--5--5--5-|
A|-6--5--6--5--6--5--8--8--8--7--8--7--8--7--5--5-|
E|-4--3--4--3--4--3--6--6--6--5--6--5--6--5--3--3-|

Proseče oči, polne solza
iščejo smisel tega sveta.
Volkovi - plen
krik sedanjosti.

0.34
e|------------------------|
H|------------------------|
G|-5----------------------|
D|-5--7--5--5--7--5--3—-3-|
A|-3--7--5--5--7--5--3—-3-|
E|----5--3--3--5--3--1--1-|

Dolge kolone praznih besed.
Zastave plapolajo v vetru.

Tab by Gašper Čefarin