Nifelheim - Satanic Sacrifice Text Guitar Tab

Learn song with the online tabulature player
Normal Tuning

Riff:1                 Riff:2a     Riff:2b Intro Solo
|---------------------|-----------|-------|---------------|---------|
|---------------------|-----------|-------|-101010-121212-|-(10)~---|
|---------------------|-----------|-------|---------------|---------|
|---------------------|----888----|---8---|---------------|---------|
|-----7-6-----7-6-8-7-|-777666888-|-7-6-8-|---------------|---------|
|-0-5-----0-5---------|-555---666-|-5---6-|---------------|---------|

Riff:3      Riff:4              Riff:5
|----------|-------------------|------------------------------------|
|----------|-------------------|-10-------10---11-------------------|
|----------|-------------------|----9-8-9----9----10----------------|
|----------|-44445577-44447755-|------------------------------------|
|-7--3-2-6-|-22223355-22225533-|------------------------------------|
|-5--1-0-4-|-------------------|------------------------------------|