Night Ranger - Seven Wishes Text Guitar Tab

Learn the song with the online tablature player
Song Title: Seven Wishes
     Album: Seven Wishes
    Artist: Night Ranger

Seven Wishes

Intro
[------------------------------]
[------------------------------]
[------------------------------]
[-2--2-2-2--2-2-2--2-2---------]
[-2--2-2-2--2-2-2--2-2---------]
[-0--0-0-0--0-0-0--0-0--2*4*---]
  ....................

"We were always meant to be...."
Guitar 2
[--------]
[-17~~~~~]
[--------]
[--------]
[--------]
[--------]

Both Guitars
[----------------]
[----------------]
[-------------5~-]
[-5-7~~~7~~~--5~-]
[-5-7~~~7~~~--3~-]
[-3-5~~~5~~~-----]

While last chord is ringing, Guitar 1 plays:
[-----------]
[-----------]
[12-11------]
[-----14-12-]
[-----------]
[-----------]

Then, Both Guitars: (To avoid confusion, I put brackets around the chords you don't palm mute)

Intro
ish           Main Riff
[------------------]-----------------]
[------------------]-----------------]
[------------------]-----------------]
[-2-2-[2]-2-22-[2]-]-------0-2h4p2-0-]
[-2-2-[2]-2-22-[2]-]--0h2p0----------]
[-0-0-[0]-0-00-[0]-]-3---------------]
  ...     ....

Guitar 2 plays:
[------------------------]
[------------------------]
[-12-11-11-11------------]
[------------14-14-12-10-]Played sorta fast
[------------------------]
[------------------------]
Play Main Riff again, and end on E chord...the [xxx220] chord.

Solo

Okay....do not hold me to this....it's freakin' fast....I do not know the entire solo,
this is some of it....the entire solo,
if you've actually listened, has zillions of notes in a short amount of time,
and I have better things to do than to listen carefully to each of Brad Gillis's and
Watson's
every single note. SO, that being said,
here's part of the solo, which I can't play very well any way.

Pre-Solo (The part where the keyboard plays and it sounds like you're in Heaven)
[----------------------]
[-10-10fb12------------](The "10-10fb12" is played rather quickly,
[------------12*~~~11\-] while the 12*~~~11\ is played pretty normally)
[----------------------]
[----------------------]
[----------------------]

Okay...now there's some guitar in the background, which I can't make out, then the main
part starts:
[-20~~~19-17--20-19-17--20-19-17--t20p19p17-t20p19t17-t20p19p17-20fb(22)]
[-----------------------------------------------------------------------]
[-----------------------------------------------------------------------]
[-----------------------------------------------------------------------]
[-----------------------------------------------------------------------]
[-----------------------------------------------------------------------]

Followed by that, are more unintellegible guitar notes, then:
the same thing above, except using the 15th fret, 14th fret, and 12th fret.
Like this:
e[-t15p14p12-etc.]

Then, more random tapping and light-speed picking.
Sorry I don't have the whole solo, but, eh, you can just come up with random tapping and/or
scales to go along with it.....or just
not do the solo.....ahem.
Anyway, that's pretty much
Seven Wishes, easy peazy....minus the uber solo.

Long Live Night Ranger....and Reese's Peanut Butter Cups (ftw) ;D

"Attention passengers, this is your captain
speaking, we might experience some slight
turbulence and then explode" -From the movie,
Serenity, also ftw.