Nightfall - Life As It Was Text Guitar Tab

Learn the song with the online tablature player
Intro
Clean Electric Guitar):
E|----------------------2----------
B|-----------------------2---------
G|---------------------------------
D|4---4-4------4-----------0-2-2s/12
A|-2--2-2-2222-2-0000-2-2------2s/12
D|--0-----2222---0000-2-2------2s/12

Play the verses twice

Verse
Distortion Electric Guitar):
E|----------------------------00000000-----0-0-0-0
B|------------------------------------3333--------
G|------------------------------------------------
D|4-4-4-4-----------------------------------------
A|2-2-2-2-----------------------------------------
D|-------22222222-0000-2-2-2-2--------------------

Bridge
(Still Distorttion Electric Guitar):
E|-------------------------
B|-------------------------
G|-------------------------
D|-------------------------
A|-------------------------
D|22222222-00000000-2-2S/12

PLAY THIS BAD BOY TWICE

Chorus
And Still Distorttion Electric Guitar):
E|----------------------2-----------00-2-22-2
B|-----------------------2-------------------
G|-------------------------------------------
D|4---4-4------4-----------0-2-2s/12---------
A|-2--2-2-2222-2-0000-2-2------2s/12---------
D|--0-----2222---0000-2-2------2s/12---------

ENDING(Clean Electric Guitar):
E|0-0-2-2----------
B|-------3-3-3-3---
G|-----------------
D|-----------------
A|-----------------
D|--------------0-0

Arrangments:
Intro

Verse 2x

Bridge

Chorus 2x

Verse 2x

Bridge

Chorus 2x

Ending