Nikola Sarcevic - Vila Rada Text Guitar Tab

Learn the song with the online tablature player
Nikola Sarcevic - Vila Rada

I couldn't find any tabs for this wonderful song, so here is mine. This is from
Nikola Sarcevic (singer/bassist of Millencolin)'s first solo album, Lock-Sport-Krock.
I hope you like it.

Chords:

C9: 032030
E7: 022030

Riff 1

Em                       C9          E7

----0-----0-----0--------------------------------|
----0-----0-----0-----------3-----3-----3--------|
----------------------------0-----0-----0--------|
-------2-----------------------------------------|
-------------------0--2--3-----3-----2-----------|
-0-----------0-----------------------------2--3--|

Riff 2

Em                   C9          E7

----0--3--0----------------------------------|
----0-------0-----------3-----3-----3--------|
------------------------0-----0-----0--------|
---------------------------------------------|
---------------0--2--3-----3-----2-----------|
-0-------------------------------------2--3--|

Riff 3

----0--------0--------------------------------------|
-------3--------3-----------3-----3--------3--------|
-------------------------------0-----------0--------|
----------------------------------------------------|
-------------------0--2--3-----------3--2-----------|
-0--------0-----------------------------------2--3--|

Intro
(riff 1) x2
(riff 2) x2

(riff 3)
Someone told me that you are gone now
(riff 3)
You took off to the other side
(riff 3)
It's no one's fault no, you just made up your mind
(riff 3)
How can I believe something like that?
(riff 3)
How can I believe it's true?
(riff 3)
I don't believe in much but I believe in you
(riff 3)

Chorus

          Am            Am Em C
If you're still alive
       D             Am                 Am Em C
If you still haven't closed your eyes
          D              Am               Am Em C
If you're still rambling around at night
D
Then I'll be waiting
(riff 2)
here for you, yeah, waiting here for you
(riff 2)
I'll be waiting here for you, yeah, waiting here for you

(riff 3)
I hope you know that I always loved you
(riff 3)
Even though it's something I never said
(riff 3)
Well, hope is all I've got, hope that you're not dead

(Chorus)

(Repeat riff 2 a few times)

Outro

-0-----2--3--5--------7(5)7--3--------5--2--0---------------|
----------------5---------------0--------------0-----0(3)0--|
-------------------5---------------0--------------0---------|
-------0------------------------------0---------------------|
----2-----0--3---------------3------------------------------|
-0---------------------------------------2--0---------------|

-0-----2--3--5--------7--8(10)8--3--------5--2--0-----------0-----------3--------5-|
----------------5-------------------0-----------1--1-----1--1--1-----1-----0-------|
-------------------5-------------------0--------------2-----------2-----------0----|
-------0----------------------------------0--------------------------------------0-|
----2-----0--3-------------------3--------------0-----------0-----------3----------|
-0-------------------------------------------2-------------------------------------|

-2--0-----------0-----------|
-------0-----0-----0-----0--|
----------0-----------0-----|
----------------------------|
----------------------------|
-2--0-----------0-----------|

That's it. I probably missed quite a few notes, but the main structure is there. Enjoy!!!

-Victor Medina.