Nile - Wind Of Horus Text Guitar Tab

Learn the song with the online tablature player
NILE-WIND OF HORUS

Key:
_    Hammer-on and pull-off
*    Pinched harmonic
^    Bend up
v    Bend down
.     Palm mute
~    Let Ring
"    Tremolo picking

RIFF A
00.00)
|----------------------------------------------------|
|-------------4--/--7--\--3--------------------------|
|----------------------------------------------------|
|----------------------------------------------------|
|----------------------------------------------------|
|----------------------------------------------------|

RIFF B
00.04)
|----------------------------------------------------------------------------------|
|----------------------------------------------------------------------------------|
|----------------------------------------------------------------------------------|
|------------------------6"--------------------6"----------------------------------|
|-6"------------------------6"--------------------6"-------------------------------|
|-----9"-8"-9"-8"-6"----------9"-8"-9"-8"-6"--------9"-8"-9"-8"-6"-----------------|

RIFF A

RIFF B

RIFF A

RIFF B

RIFF C1
00.31)
|-------------------------------------------------------------------------------------------|
|-------------------------------------------------------------------------------------------|
|-7_0--0-0--6_0--0-0--7_0--0-0--------6_0--0-0--2_0--0-0--3_0--0-0--------------------------|
|-------------------------------8_0----------------------------------5----------------------|
|-------------------------------------------------------------------------------------------|
|-------------------------------------------------------------------------------------------|

RIFF C2
00.35)
|------------------------------------------------------------------------------------------------------|
|------------------------------------------------------------------------------------------------------|
|----------------------8_7_5--8_7_5--------------------------8_7_5--8_7_5---------7^-v-----------------|
|--------8_7_5--8_7_5-------------------------8_7_5--8_7_5------------------5_8------------------------|
|----0-----------------------------------0-------------------------------------------------------------|
|------------------------------------------------------------------------------------------------------|
Pm   .                                   .

(Play Riff C2 to conclude Riff C1 when it is just music but when the lyrics join end Riff C1 with Riff C3)

RIFF C1

RIFF C3
01.13)
|----------------------------------------------------|
|----------------------------------------------------|
|-7_8_7—-5_7_5—-4_5_4--------------------------------|
|-------------------------5_6_5----------------------|
|----------------------------------------------------|
|----------------------------------------------------|

FILL 1, RIFF D (01.30)
|--10_11_10—-8_10_8-—7_8_7---------------------------------|
|----------------------------8_9_8-------------------------|
|----------------------------------------------------------|
|----------------------------------------------------------|
|-----------------------------------------5^-v-------------|
|----------------------------------------------------------|

RIFF E
01.37)
|----------------------------------------------------|
|----------------------------------------------------|
|----------------------------------------------------|
|--------7-----6-------------------------------------|
|-----------------------------8----------------------|
|-----0-----0-----0-0-0-0----------------------------|
pm    .     .     . . . .

RIFF C3

RIFF F1
02.09)
|-10"-9"-6"------------------------------------------|
|---------------10"-11"-10"-7"-8"-4"-3"--------------|
|----------------------------------------------------|
|----------------------------------------------------|
|----------------------------------------------------|
|----------------------------------------------------|

RIFF F2
02.22) Guitar 1
|-----------------------------|------------------------------------|
|-11~--10_11_10---------------|------------------------------------|
|----------------------11~----|--12~--11_12_11---------------------|
|-----------------------------|-------------------13~--12~---------|
|-----------------------------|------------------------------------|
|-----------------------------|------------------------------------|

RIFF F2 Guitar 2
|-----------------------------------------------------------------|
|-----------------------------------------------------------------|
|-----------------------------------------------------------------|
|-----------------------------------------------------------------|
|-----------------------------------------------------------------|
|---------------------------------------------------1"----0"------|

FILL 2, RIFF G
|----------------------------------------------------|
|----------------------------------------------------|
|----------------------------------------------------|
|----------------------------------------------------|
|----------------------------------------------------|
|-----0-0-0-0-0-0-0-0-0-0-0-0-0-0-0-0----------------|
pm    . . . . . . . . . . . . . . . .

RIFF C2

RIFF C1

RIFF C2

RIFF C1

RIFF C3

FILL 1

End, RIFF H
|----------------------------------------------------|
|----------------------------------------------------|
|----------------------------------------------------|
|-0~-------------------------------------------------|
|-0~-------------------------------------------------|
|-0~-------------------------------------------------|