Nils Lofgren - Mr Hardcore Text Guitar Tab

Learn the song with the online tablature player
E-------------------------------------------|
B-------------------------------------------|
G-------------------------------------------|opening riff/
D-0--------0--------2-0—0---------0---------|verse
A—-3-0-3-3---3-0-3-3-------3-0-3-3-3-0------|
E-------------------------------------4-3-1-|

Play a couple of times and ever so often move it up a string.

E-------------------------------------------|
B-------------------------------------------|
G-6--5---5-5--------------------------------|mr. hardcore
D-6--5---5-7--------------------------------|chorus”
A-4--3---7-7--------------------------------|
E-------------------------------------------|

E------------------------------------------|
B------------------------------------------|
G-5-7-x-x-10-x-7-x-3/5---------------------|this is a
D-5-7-x-x-10-x-7-x-3/5---------------------|post chorus riff
A-3-5-x-x-8—-x-5-x-2/3---------------------|im not sure if
E------------------------------------------|its right

E------------------------------------------|
B------------------------------------------|
G------------------------------------------|that’s just
D-x-x-2-(1)(0)-----------------------------|another break
A-x-x-2-(0)(2)-----------------------------|down, those
E-x-x-0-(0)(3)-----------------------------|chords should be
Progressed with a plam mute before each.