Nina Hagen - Naturtrane Text Guitar Tab

Learn song with the online tabulature player
this song is soooo beautiful and easy to play, 
it's really hard to believe that this is the 
very first tab ever for this song. Anyway, i'm 
almost certain it's correct, I had to watch the 
Rockpalast concert over and over again. This 
is a reallllly good song, so LEARN IT!

Main Verse (clean)(palm mute this when the drums start playing)
e|--------0-----0---------0-----0---------0-----0---------0-----0--|
B|------3---3-----------3---3-----------2---2-----------2---2------|
G|------4---------4-----4---------4-----3---------3-----3---------3|
D|--5~--5-----5-----5~--5-----5-----4~--4-----4-----4~--4-----4----|
A|-----------------------------------------------------------------|
E|-----------------------------------------------------------------|

e|--------0-----0---------0-----0---------0-----0---------0-----0--|
B|------1---1-----------1---1-----------0---0-----------0---0------|
G|------2---------2-----2---------2-----1---------1-----1---------1|
D|--3~--3-----3-----3~--3-----3-----2~--2-----2-----2~--2-----2----|
A|-----------------------------------------------------------------|
E|-----------------------------------------------------------------|


Distorted Part (comes in right in the middle of Nina's last screams)
e|----------------------------------------------------------|
B|----------------------------------------------------------|
G|----------------------------------------------------------|
D|--------------------------7/---------2~\5~\7~\9~----------|
A|---------2--5~-7~/4~~-5-4~----0-2-3~----------7~----------|
E|--0-2-3~--------------------------------------0~----------|

e|-----------------------------------------------------------|
B|-----------------------------------------------------------|
G|-----------------------------------------------------------|
D|-------------------------5--------5------------2~\5~\7~\9~-|
A|---------2--5~-7~/4-5-4~---4~-5-4---4~--0-2-3~----------7~-|
E|--0-2-3~------------------------------------------------0~-|