Nina Kinert - The Story Goes Text Guitar Tab

Learn the song with the online tablature player
                             The Story Goes – Nina Kinert

e|----------------------------|----------------------------------------------|
B|---5-----5------4-----4-----|---2-----2------0-----0-----------------------|
G|-------0---0--------0---0---|-------0---0--------0---0---------------------| 2X
D|-----0-------0----0-------0-|-----0-------0----0-------0-------------------|
A|---5------------4-----------|---2------------0-----------------------------|
E|----------------------------|----------------------------------------------|

e|----------------------------|----------------------------------------------|
B|----------------------------|----------------------0-----------------------|
G|---5-----5------5-----5-----|---5-----5------5-----------------------------|
D|-------0---0--------0---0---|-------0---0--------0---0---------------------|
A|-----0-------0----0-------0-|-----0-------0----0-------0-------------------|
E|---5------------5-----------|---5------------5-----------------------------|

e|----------------------------|----------------------------------------------|
B|----------------------------|----------------------0-----------------------|
G|---0-----0------0-----0-----|---0-----0------0-----------------------------|
D|-------0---0--------0---0---|-------0---0--------0---0---------------------|
A|-----0-------0----0-------0-|-----0-------0----0-------0-------------------|
E|---0------------0-----------|---0------------0-----------------------------|

e|----------------------------|----------------------------------------------|
B|----------------------------|----------------------0-----------------------|
G|---5-----5------5-----5-----|---5-----5------5-----------------------------|
D|-------0---0--------0---0---|-------0---0--------0---0---------------------|
A|-----0-------0----0-------0-|-----0-------0----0-------0-------------------|
E|---5------------5-----------|---5------------5-----------------------------|

e|----------------------------|----------------------------------------------|
B|----------------------------|----------------------------------------------|
G|---0-----0------0-----0-----|---0-----0------0-----0-----------------------|
D|-------0---0--------0---0---|-------0---0--------0---0---------------------|
A|-----0-------0----0-------0-|-----0-------0----0-------0-------------------|
E|---0------------0-----------|---0------------0-----------------------------|