Nine Black Alps - Everybody Is Text Guitar Tab

Learn the song with the online tablature player
Intro
Guitar 1
D|-----------------|
A|-----------------|
F|-8-8-7-7-5-5-5-5-|
C|-5-5-4-4-2-2-2-2-|
G|-6-6-5-5-3-3-0-0-|
D|-----------------|

Guitar 2 Joins
D|-----------------|
A|-8-8-7-7-5-5-2-2-|
F|-8-8-7-7-5-5-2-2-|
C|-8-8-7-7-5-5-2-2-|
G|-----------------|
D|-----------------|

Verse
Guitar 1
D|-----------------|
A|-----------------|
F|-8-8-7-7-5-5-5-5-|
C|-5-5-4-4-2-2-2-2-|
G|-6-6-5-5-3-3-0-0-|
D|-----------------|

Guitar 2 Joins with heavy distortion
D|-----------------|
A|-8-8-7-7-5-5-2-2-|
F|-8-8-7-7-5-5-2-2-|
C|-8-8-7-7-5-5-2-2-|
G|-----------------|
D|-----------------|

Chorus
D|-3-3-0-0-5-5/10-10-|
A|-3-3-0-0-5-5/10-10-|
F|-4-4-1-1-6-6/11-11-|
C|-5-5-2-2-7-7/12-12-|
G|-5-5-2-2-7-7/12-12-|
D|-3-3-0-0-5-5/10-10-|

Verse 2 same as verse 1 except guitar plays throughout in heavy distortion

Chorus 2 same as 1st chorus

Bridge
Bass
F|-----------------|
C|-----------------|
G|-----6-------5---|
D|-5-5---5-5-5---5-|

Guitars 1 uses heavy feedback
        2 uses scratches

Chorus 3 same ase previous choruses

Outro same as verse

End

Please rate and comment, thanks. Enjoy.