Nine Black Alps - Just Friends Text Guitar Tab

Learn the song with the online tablature player
Intro
e---------------------|--------------------|
b---------------------|--------------------|
g-10-8-10-8-10-8-10-8-|-10(12)10p8-----8---| x2
D---------------------|-------------10-----|
A---------------------|--------------------|
E---------------------|--------------------|

e---------------------|--------------------|
b-10-8-10-8-10-8-10-8-|-10(12)10p8---------|
g-10-8-10-8-10-8-10-8-|-10(12)10p8-----8---| x2
D---------------------|-------------10-----|
A---------------------|--------------------|
E---------------------|--------------------|

2nd guitar
e-----------|---------------|
b-10--------|-8---7-8---7-8-|
g-10--------|-8---7-8---7-8-|
D-10--------|-8---7-8---7-8-| x4
A-8---------|-6---5-6---5-6-|
E-----------|---------------|

Verse
e---------|--------|---------|--------|--------|--------|
b-10------|-8------|-10------|-8------|--------|--------|
g-10------|-8------|-10------|-8------|-5------|-7------|
D-10------|-8------|-10------|-8------|-6------|-8------|
A-8-------|-6------|-8-------|-6------|-6------|-8------|
E---------|--------|---------|--------|-4------|-6------|

repeat

Chorus
e-----------|---------|
b-6---------|-8-------|
g-6----7----|-8-------|
D-6----8----|-8-------| x3
A-4----8----|-6-------|
E------6----|---------|

Solo
e------|---------------|------|---------------|
b------|---------------|------|---------------|
g-2----|-2-3-5-8---5-3-|-2----|-2-3-5-8---5-3-|
D------|---------------|------|---------------|
A------|---------------|------|---------------|
E------|---------------|------|---------------|

e--------|-------|
b--------|-------|
g-1------|-3-----|
D--------|-------|
A--------|-------|
E--------|-------|