Nine Black Alps - Southern Cross Text Guitar Tab

Learn the song with the online tablature player
intro
the accuracy isnt so important on hitting the
top notes, just get a few to get the right sound!
d-------------------------|--------------------------|
a----3-----3-----3--------|-----3-----3-----3--------|
f----2-----2-----2--------|-----2-----2-----2--------| x2
C----0-----0-----0--------|-----0-----0-----0--------|
G-----------------------0-|-3-3----3-----3-----2-0---|
C-0-----0-----0-----0-3---|------------------------3-|

d-------------------------|--------------------------|
a----3-----3-----3--------|-----3-----3-----3--------|
f----2-----2-----2--------|-----2-----2-----2--------| x2
C----0-----0-----0--------|-----0-----0-----0--------|
G-----------------------0-|-3-3---3-3---3-3----2-0---|
C-0-0--0-0---0-0----0-3---|------------------------3-|

verse
these are mainly the chords, they pick out some
of the notes but you can work it out by listening to it
d-0--------|-0-----0-----|
a-3--------|-3-----3-----|
f-2--------|-2-----2-----| x2
C-0--------|-0-----0-----|
G-0--------|-3-----2-----|
C-0--------|-------------|

this southern cross...

bridge
d----------|----------|---------|----------|
a-3--------|-3--------|-5-----1-|-3--------|
f-3--------|-3--------|-5-----2-|-3--------|
C-3--------|-3--------|-5-----2-|-3--------|
G-1--------|-1--------|-3-----0-|-1--------|
C----------|----------|---------|----------|

i tried to make it...

d-----------|-----------|
a-6----9----|-10---3----|
f-7----9----|-10---3----| x2
C-7----9----|-10---3----|
G-5----7----|-8----1----|
C-----------|-----------|

so what do i do...
middle
guitar one (10) means bend up to 10
d---------------------------------|     }
a-----6-------5-------6-----------|     }
f----(10)----(9)-----(10)---------| x2  }
C---------------------------------|     }
G---------------------------3-0---|     }
C-0-0-----0-0-----0-0-----------3-|     }
                                                                } all together
guitar two-very fast picking                    }
d-------------------------|                     }
a-15-15-15-15-15-15-15-15-|                     }
f-------------------------| x2          }
C-------------------------|                     }
G-------------------------|                     }
C-------------------------|                     }

guitar one
d-0-----------------------|-0----------------------|    }
a-1-----------------------|-1----------------------|    }
f-2-----------------------|-2----------------------|    }
C-2-----------------------|-2----------------------|    }
G-0-----------------------|-0----------------------|    }
C-------------------------|------------------------|    }
                                                                                        }
very fast picking                                                               }
d-------------------------|-------------------------|   }
a-10-10-10-10-10-10-10-10-|-17-17-17-17-17-17-17-17-|   }
f-------------------------|-------------------------|   }
C-------------------------|-------------------------|   }
G-------------------------|-------------------------|   }
C-------------------------|-------------------------|   }

guitar one
d---------------------------------|     }
a-----6-------5-------6-----------|     }
f----(10)----(9)-----(10)---------| x2  }
C---------------------------------|     }
G---------------------------3-0---|     }
C-0-0-----0-0-----0-0-----------3-|     }
                                                                } all together
guitar two-very fast picking                    }
d-------------------------|                     }
a-15-15-15-15-15-15-15-15-|                     }
f-------------------------| x2          }
C-------------------------|                     }
G-------------------------|                     }
C-------------------------|                     }
guitar one
d-0-----------------------|-0----------------------|    }
a-1-----------------------|-1----------------------|    }
f-2-----------------------|-2----------------------|    }
C-2-----------------------|-2----------------------|    }
G-0-----------------------|-0----------------------|    }
C-------------------------|------------------------|    }
                                                                                        }
very fast picking                                                               }
d-------------------------|-------------------------|   }
a-10-10-10-10-10-10-10-10-|-14-14-14-14-14-14-14-14-|   }
f-------------------------|-------------------------|   }
C-------------------------|-------------------------|   }
G-------------------------|-------------------------|   }
C-------------------------|-------------------------|   }

outro
d----------------|---------------|---------------|
a--11---10-------|--10---9-------|--8----6-------|
f-(15)-(14)------|-(14)-(13)-----|-(12)-(8)------| x2
C----------------|---------------|---------------|
G----------------|---------------|---------------|
C----------------|---------------|---------------|