Nine Inch Nails - 31 Ghosts Iv Text Guitar Tab

Learn song with the online tabulature player
the whole thing isn't perfect but it sounds cool. play with a lot of flange.

intro (probably not correct but it sounds just as good)


E -----------------------------------|
B ---4---6----8-8----12--------------|
G ---3---6----9-9----12--------------|
D -----------------------------------|
A -----------------------------------|
D -----------------------------------|

verse

E -----------------------------------------------------|
B -----------------------------------------------------|
G -----------------------------------------------------|
D -----------------------------------------------------|
A -----------------------------------------------------|
D --9-0--9-0--9-0--909090--9-0--9-0--9-0---------------|

E ------------------------------------------------------|
B ------------------------------------------------------|
G ------------------------------------------------------|
D ------------------------------------------------------|
A ------------------------------------------------------|
D --9-0--9-0--9-0--909090--9-0--9-0--9-0---0-0-0-7-7-7--|

chorus

E ------------------------------------------------------------|
B ------------------------------------------------------------|
G ------------------------------------------------------------|
D ------------------------------------------------------------|
A ------------------------------------------------------------|
D --12-0-12-0--12-14--14-12--10-0-10-0--8-0--10-0-8-0-6-0-4-0-|