Nine Inch Nails - 34 Ghosts Iv Text Guitar Tab

Learn the song with the online tablature player
                             34 Ghosts - Nine Inch Nails

this is the banjo part, goes with the bass part. sounds cool to me, and it's very easy:

e|------------------------------------|
B|------------------------------------|
G|------------12----------14-12-10-12-|
D|---12-10-12----12-10----------------|
A|------------------------------------|
E|------------------------------------|

e|-------------------------------------|
B|-------------------------------------|
G|------------12----------14-12-10-(12-|
D|---12-10-12----(12)-(10)-------------|
A|-------------------------------------|
E|-------------------------------------|

soon i'll tab the piano parts..i hope i was helpful..