Nine Inch Nails - Burn Live Text Guitar Tab

Learn the song with the online tablature player
This performance was my reference:

                after bassline 8 times
                Aaron Plays this w/ a whammy bar
E  ------------------------------------------------------------------|
A  ---------4~~~~7-10-2~~~~0~~~~-------------------------------------|
D  -0~~~~35----------------------------------------------------------|
G  ------------------------------------------------------------------|
B  ------------------------------------------------------------------|
E  ------------------------------------------------------------------|

Chorus
Im gonna burn this whole world down!)
                        Trent plays this:
E  ------------------------------------------------------------------|
A  -0h10-12-0---0h10-12-0---0h10-12-0---0h10-12-0---15s12s10-17-12---|
D  -0h10-12-0---0h10-12-0---0h10-12-0---0h10-12-0--------------------|
G  ------------------------------------------------------------------|
B  ------------------------------------------------------------------|
E  ------------------------------------------------------------------|

E  -------------------------------------------------------------------|
A  -0h10-12-0---0h10-12-0---0h10-12-0---0h10-12-0---------------------|
D  -0h10-12-0---0h10-12-0---0h10-12-0---0h10-12-0---------------------|
G  -------------------------------------------------------------------|
B  -------------------------------------------------------------------|
E  -------------------------------------------------------------------|

                        During Second Chorus (swallowed up in fire!)
        Aaron Comes in with this halfway through(whammy bar again):
E  ------------------------------------------------------------------|
A  ---9~~~~-12-0~~~~-15-9~~~~-12-0~~~~h15----------------------------|
D  ------------------------------------------------------------------|
G  ------------------------------------------------------------------|
B  ------------------------------------------------------------------|
E  ------------------------------------------------------------------|

                repeat until song finish =D
 - NIN Joe

be(i am one, duh) so please dont be too hard on me. I'm pretty sure

the notes are atleast right just the octave might be a bit off so

play around.