Nine Inch Nails - Im Afraid Of Americans Text Guitar Tab

Learn the song with the online tablature player
Intro/Verse:

|-----------------------------|
|-----------------------------|
|-----------------------------|
|--3-1---------------------1--|
|------3----------------3-----|
|---------3----3--3--3--------|

Pre-Chorus

|-------------------------------------|
|-------------------------------------|
|-------------------------------------|
|---3--/6----3--/6----3--/6----3--/6--|
|---3--/6----3--/6----3--/6----3--/6--|
|---3--/6----3--/6----3--/6----3--/6--|

Chorus 1

|------------------------------------------------------------------------------|
|------------------------------------------------------------------------------|
|-----x-9---------------x-9---------------x-9---------------x-9-x-11--11b-11b--|
|-----x-9---------------x-9---------------x-9---------------x-9-x-11--11b-11b--|
|--4--x-7----7-7b----4--x-7----7-7b----4--x-7----7-7b----4--x-7-x--9---9b--9b--|
|--4---------7-7b----4---------7-7b----4---------7-7b----4---------------------|

Chorus 2 & 3:

|---------------------------------|
|---------------------------------|
|---------------------------------|
|---------------------------------|
|--15-13-10-3----3--3--3--10--13--|
|--15-13-10-3----3--3--3--10--13--|

End Chorus:

|---------------|
|---------------|
|---------------|
|------11/9-----|
|---------------|
|---------------|

Outro
Guitar 1):

|-----------------------------------------------------|
|-----------------------------------------------------|
|-----------------------------------------------------|
|--4--4--4--/5--5--5--5--5--/7--7--7--/2--2--2--2--2--|
|-----------------------------------------------------|
|-----------------------------------------------------|

Outro
Guitar 2):

|-----------------------------|
|-----------------------------|
|-----------------------------|
|--------4--2-----------------|
|-----------------------5--4--|
|--4--4----------2----2-------|