Nine Inch Nails - In This Twilight Text Guitar Tab

Learn the song with the online tablature player
                             IN THIS TWILIGHT - Nine Inch Nails

This probably isn't exact but its alot closer to any of the tabs i've found
online so far. A great song live and the final song played each night during
the Lights In The Sky Tour.

Verse
Starts around 35sec mark. Just Listen for Timing.
       Robin uses some sort of Tremelo effect.
e|-------------------------------------------------------------------------|
B|-9----7------------------------------------------------------------------|
G|-9----7----6--6^---------------------------------------------------------|
D|-------------------------------------------------------------------------|
A|-7----5----4-------------------------------------------------------------|
E|-------------------------------------------------------------------------|

Chorus
e|-------------------------------------------------------------------------|
B|-------------------------------------------------------------------------|
G|-------------------------------------------------------------------------|
D|-10-----9-----12-----11--------------------------------------------------|
A|-10-----9-----12-----11--------------------------------------------------|
E|-10-----9-----12-----11--------------------------------------------------|

Outro
(for Live Version)I use Wah for this section.
      After this Robin plays the verse chords again before leaving Trent
      to play the piano outro.
e|-------------------------------------------------------------------------|
B|-------------------------------------------------------------------------|
G|-17-----16-16^-19-----18-18^---------------------------------------------|
D|-------------------------------------------------------------------------|
A|-15-----14-----17-----16-------------------------------------------------|
E|-------------------------------------------------------------------------|

Enjoy!!!

| ^  Bend
| /  slide up
| \  slide down
| h  hammer-on
| p  pull-off
| ~  vibrato
| +  harmonic
| x  Mute note