Nine Inch Nails - Slipping Away Text Guitar Tab

Learn the song with the online tablature player
p.m.=palm mute

Intro
guitar 1:
|-----------------------------------------------------|
|-----------------------------------------------------|
|-----------------------------------------------------|
|--10-10-10-10--11-11-11-11-11-11-11-11--12-12-12-12--|
|-----------------------------------------------------|
|-----------------------------------------------------|
p.m.------------------------------------------------

guitar 2: 0:32:
|---------------|
|---------------|
|---------------|
|--3--7--4--12--|
|---------------|
|---------------|

guitar 3: 1:10:
|--------------------------------|
|--------------------------------|
|--7--------------------------7--|
|------------4-4-4-4-5-5-5-5-----|
|--------------------------------|
|-----0-3-5----------------------|

Verse
guitar 4: 1:53:
|----------------------------------|
|----------------------------------|
|----------------------------------|
|--12-12-12-12-12-12-12-12--15p12--|
|----------------------------------|
|----------------------------------|

bass guitar:
|-----------------|
|-----------------|
|-----------------|
|-----------------|
|-----------------|
|--10/11/12--0-3--|