Nine Inch Nails - The Big Come Down Text Guitar Tab

Learn the song with the online tablature player
Chorus
"There is no place I can go"
E-------------------------------------------------|
B-------------------------------------------------|
G-------------------------------------------------|
D---8-8-8-8-8-8-8-8----5-5-5-5-5-5-5-5------------|
A---8-8-8-8-8-8-8-8----5-5-5-5-5-5-5-5------------|
D---8-8-8-8-8-8-8-8----5-5-5-5-5-5-5-5------------|

Verse
"There is a hate that burns within"
E-------------------------------------------------|x2
B-------------------------------------------------|
G----11-11----10-10-10----------------------------|
D----x--x-----x--x--x-----------------------------|
A----9v-9v----8v-8v-8v----------------------------|
D-------------------------------------------------|

Pre-Solo: Acoustic (Aaron, Robin, and I use the piezo pickup in our Parker Flys)
E-------------------------------------------------|
B-------------------------------------------------|
G-------------------------------------------------|
D-10v-10v-10v-10v-10v-10v-10v-10v-10v-10v-10v-10v-|
A-------------------------------------------------|
D-------------------------------------------------|

Solo
After every solo stop,stop and do the following below since Aaron North does
the raping of the amp with feedback!!
(The third time you do the solo below you bend a 19 on the D string)

E-------------------------------------------------| x3
B-------------------------------------------------|
G-------------------------------------------------|
D--12b-10-12b-10-12b------------------------------|
A-------------------------------------------------|
D-------------------------------------------------|

After Every Solo
repeat this part twice (Alessandro usually plays this in the background)
E-------------------------------------------------|x2
B-------------------------------------------------|
G----11-11----10-10-10----------------------------|
D----x--x-----x--x--x-----------------------------|
A----9v-9v----8v-8v-8v----------------------------|
D-------------------------------------------------|
then last solo

E-------------------------------------------------------|
B-------------------------------------------------------|
G-------------------------------------------------------|
D--12b-10-12b-10-12b-10-12b--20///-19///-18///-17///----|
A-------------------------------------------------------|
D-------------------------------------------------------|

Outro
just repeat main riff. after last solo

All figured out by TheNiNGuitarist