Nine Inch Nails - The Line Begins To Blur Live Text Guitar Tab

Learn the song with the online tablature player
Bass Line
G---------------------------------------------------------------|
D---------------------------------------------------------------|
A---------------------------------------------------------------|
D-0-0-0-0----0-0-0-0----0-0-0-0----0-0-0-0----0-0-0-0-----------|

Chorus

E---------------------------------------------------------------|
B---------------------------------------------------------------|
G--9-------10------17------14-----------------------------------|
D--9-------10------17------14-----------------------------------|
A--7-x(8)--8-x(8)--15-x(8)-12-x(8)------------------------------|
D---------------------------------------------------------------|

Interlude
When I put my cover of this up I'll use an eBow for this Interlude!!

E----------------------------------------------------------------|
B----------------------------------------------------------------|
G----9--9b-9-7-10-12-14b--9--9b-9--7/17-17-17-17-17-17-17-17-----|
D----------------------------------------------------------------|
A----------------------------------------------------------------|
D----------------------------------------------------------------|