Nine Inch Nails - With Teeth Text Guitar Tab

Learn song with the online tabulature player
A-WITH-A-TEETH-AH! Tabbed by Foamy.
Babygzus@gmail.com

Main Verse Riff:

E|-------------------------|
B|-------------------------|
G|--7^7------9^--7777^777--|
D|-------------------------|
A|-------8-8---------------|
E|-------------------------|

Chorus Riff:

E|-------------------------------------------|
B|-------------------------------------------|
G|--7^7--5-5--12-12-12-12-12-11-11-11-11-11--|
D|--x----x-x--x--x--x--x--x--x--x--x--x--x---|
A|--5----3-3--10-10-10-10-10-9--9--9--9--9---|
E|-------------------------------------------|

Middle Part:

E|----------------------------------------------------|
B|----------------------------------------------------|
G|----------------------------------------------------|
D|--15-14-12-10/-17-15----14-12----14-15-20-19-15-10--|
A|----------------------------------------------------|
E|----------------------------------------------------|