Nine Lashes - Anthem Of The Lonely Text Guitar Tab

Learn the song with the online tablature player
Hi guys, this is the first song I've tabbed. It sounds right to me, so hopefully
you guys will like it.

/- slide
h-Hammer on
p-pull off
b-bend
pm-palm mute
X-fret mute
(x)-strum the indicated amount of times
*-harmonic

Intro
--Guitar 1

The entire intro for this guitar takes place on the lowest Bb string. (It looks hard but
it's much easier once you know the notes)

Bb--12p0-0-h12p0-0-h12p0-0-h12p0-0-h12p0h7p0-h8p0-0-h8p0-0-h8p0-0-h8p0-0-

Bb--h8p0h10p0-h7p0-0-h7p0-0-h7p0-0-h7p0-0-h7p0-h5p0-8p0-0-8p0-0-h8p0-h7p0-0-

Bb--h7p0-0-h7p0.

Play it again, but don't play the "h7p0-0-h7p0-0-h7p0." Play nothing after the "h8p0".
**Guitar 2's part begins HERE** Then play the riff again as it is tabbed, but don't pull
off the last note, so that it ends on the 7th fret.

Intro
--Guitar 2

I'm not sure if this is 100% perfect, but it sounds pretty close.

C--10--10--10--10--10---10--10--10--10--10---------------------|
G------10--11------10-------10--11--13--10---------------------|
Eb-------------12-------12-------------------------------------|
Bb-------------------------------------------------------------|
F--------------------------------------------------------------|
Bb-------------------------------------------------------------|

C--10--10--10--10--10----------------------10-----------------|
G------10--11------10-------11----10-11-13-10-----------------|
Eb-------------12-------12-----12-----------------------------|
Bb------------------------------------------------------------|
F-------------------------------------------------------------|
Bb------------------------------------------------------------|

First Verse---Guitars 1+2 (Guitar 1 starts playing it immediately after last note of
riff. Guitar 2 joins after final note fades out.)

C-------------------------------------------------------------|
G-------------------------------------------------------------|
Eb------------------------------------------------------------|
Bb--pm0000--0000----0000--0000--------------------------------|
F---pm0000--0000----0000--0000--------------------------------|
Bb--pm0000--0000----0000--0000--------------------------------|
    Play that 4 times

Pre Chorus---Guitar 1

This riff is very similar to the main riff, but it is played entirely on the higher Bb
string (4th string) and has a slight change at the end of the riff.

Bb--12p0-0-h12p0-0-h12p0-0-h12p0-0-h12p0h7p0-h8p0-0-h8p0-0-h8p0-0-h8p0-0-

Bb--h8p0h10p0-h7p0-0-h7p0-0-h7p0-0-h7p0-0-h7p0-h5p0-8--5--10--7
     Then repeat it, but don't play the final note on the 7th fret.

Pre Chorus---Guitar 2

These are just power chords on the lowest three strings.

C-------------------------------------------------------------|
G-------------------------------------------------------------|
Eb------------------------------------------------------------|
Bb--0-0---X-0-X-7-5-5---5-X-5-3-3---3-X-3--8-5-7-3------------|
F---0-0---X-0-X-7-5-5---5-X-5-3-3---3-X-3--8-5-7-3------------|
Bb--0-0---X-0-X-7-5-5---5-X-5-3-3---3-X-3--8-5-7-3------------|
     Play it again, but without the final chord on the 3rd fret.

Chorus
--Guitar 1

Simple Power Chords on the lowest three strings.

C--------------------------------------------------------------------|
G--------------------------------------------------------------------|
Eb-------------------------------------------------------------------|
Bb--0----3-0-5--7--8----8-5-7--3--0----3-0-5--7--8----8-X-5-X-5-7--3-|
F---0----3-0-5--7--8----8-5-7--3--0----3-0-5--7--8----8-X-5-X-5-7--3-|
Bb--0----3-0-5--7--8----8-5-7--3--0----3-0-5--7--8----8-X-5-X-5-7--3-|

Chorus
--Guitar 2

These are just simple octave chords on the 3rd and 5th strings.

C------------------------------------------------------------------|
G------------------------------------------------------------------|
Eb--7(x16)--9(x6)--10(x6)--12(x4)--7(x22)--5(x10)------------------|
Bb-----------------------------------------------------------------|
F---5(x16)--7(x6)---8(x6)--10(x4)--5(x22)--3(x10)------------------|
Bb-----------------------------------------------------------------|
     Repeat.

Each guitarist plays their main riff.

Guitar 1 plays the same as it does in verse 1.

Verse 2
--Guitar 2

Listen to the song to get the exact timing of this, but the notes that are played go as follows.

C------------------------------------------------------------------|
G------------------------------------------------------------------|
Eb--7----10-9----7---------------7----10-9----7--------------------|
Bb------------10---8-7---5----8------------10---8-7----------------|
F------------------------------------------------------------------|
Bb-----------------------------------------------------------------|

Pre Chorus 2---Guitar 1

It's basically the same as Pre Chorus 1, but you can add 3 muted strums after the last note.

Pre Chorus 2---Guitar 2---Same as Pre Chorus 1

Chorus 2 is the same as chorus 1 for both guitars.

Solo
--Lead guitar

The entire solo is on the first two strings.

C--13p12----10----10/12---12/15-13-12-----10-----10/12---12/15----|
G-------10------10------10------------11------11-------10---------|
Eb----------------------------------------------------------------|
Bb----------------------------------------------------------------|
F-----------------------------------------------------------------|
Bb----------------------------------------------------------------|

C--13-12-----10----10/12---12/15-13-12-----10----10/12-----12b13--|
G--------10------10------10------------11------11-------10--------|
Eb----------------------------------------------------------------|
Bb----------------------------------------------------------------|
F-----------------------------------------------------------------|
Bb----------------------------------------------------------------|

Solo
--Rhythm Guitar

C------------------------------------------|
G------------------------------------------|
Eb-----------------------------------------|
Bb--3(x16)--7(x16)--8(x16)--12(x8)--14(x8)-|
F------------------------------------------|
Bb--0(x16)--3(x16)--5(x16)---8(x8)--10(x8)-|
     Repeat.

Bridge
--Both guitars are silent.

Chorus 3
--Guitar 1

C----------------------------------------------------------------------------|
G----------------------------------------------------------------------------|
Eb---------------------------------------------------------------------------|
Bb--0----3-0-5--7--8----8-5-7--3--0----3-0-5--7--8----X-8-X-5-X-7-X-3-X-3-XX-|
F---0----3-0-5--7--8----8-5-7--3--0----3-0-5--7--8----X-8-X-5-X-7-X-3-X-3-XX-|
Bb--0----3-0-5--7--8----8-5-7--3--0----3-0-5--7--8----X-8-X-5-X-7-X-3-X-3-XX-|

Chorus 3
--Guitar 2

C------------------------------------------------------------------|
G------------------------------------------------------------------|
Eb--7(x16)--9(x6)--10(x6)--12(x4)--7(x22)--5(x10)------------------|
Bb-----------------------------------------------------------------|
F---5(x16)--7(x6)---8(x6)--10(x4)--5(x22)--3(x10)------------------|
Bb-----------------------------------------------------------------|

C------------------------------------------------------------------|
G------------------------------------------------------------------|
Eb--7(x16)--9(x6)--10(x6)--12(x4)--7(x22)-X-7-X-7-X-5-X-5-X-5555---|
Bb-----------------------------------------------------------------|
F---5(x16)--7(x6)---8(x6)--10(x4)--5(x22)-X-5-X-5-X-3-X-3-X-3333---|
Bb-----------------------------------------------------------------|

Outro
--Guitar 1

Basically, the main riff on the 6th string again.

C---------------------------------------------------------------------------|
G---------------------------------------------------------------------------|
Eb--------------------------------------------------------------------------|
Bb--------------------------------------------------------------------------|
F---------------------------------------------------------------------------|
Bb--12p0-0-h12p0-0-h12p0-0-h12p0-0-h12p0h7p0-h8p0-0-h8p0-0-h8p0-0-h8p0-0----|

C---------------------------------------------------------------------------|
G---------------------------------------------------------------------------|
Eb--------------------------------------------------------------------------|
Bb--------------------------------------------------------------------------|
F---------------------------------------------------------------------------|
Bb--h8p0h10p0-h7p0-0-h7p0-0-h7p0-0-h7p0-0-h7p0-h5p0-8p0-0-8p0-0-h8p0-h7p0-0-|

C---------------------------------------------------------------------------|
G---------------------------------------------------------------------------|
Eb--------------------------------------------------------------------------|
Bb-----X-X-X-*7*------------------------------------------------------------|
F------X-X-X-*5*------------------------------------------------------------|
Bb--h7-X-X-X-*5*------------------------------------------------------------|

Outro
--Guitar 2

C--10--10--10--10--10---10--10--10--10--10---------------------|
G------10--11------10-------10--11--13--10---------------------|
Eb-------------12-------12-------------------------------------|
Bb-------------------------------------------------------------|
F--------------------------------------------------------------|
Bb-------------------------------------------------------------|

C--10--10--10--10--10---10--10--10--10--10---------------------|
G------10--11------10-------10--11--13--10---------------------|
Eb-------------12-------12-------------------------------------|
Bb-------------------------------------------------------------|
F--------------------------------------------------------------|
Bb-------------------------------------------------------------|