Nine Pound Hammer - Im Your Huckleberry Text Guitar Tab

Learn song with the online tabulature player
SONG NAME - Band Name
-------------------------------------------------------------------------------
Tabbed by:
Email:

Tuning:
intro
e|-----------------------------------------------------------------------------------|
B|-----------------------------------------------------------------------------------|
G|-----------------------------------------------------------------------------------|
D|-----------------------------------------------------------------------------------|
A|----0-0-0-2-0----------------------------------------------------------------------|
E|0-3------------3-2-0---------------------------------------------------------------|


then play these chords over and over
that's about it except for the solo
e|------------------------------------------------------------------------------------|
B|------------------------------------------------------------------------------------|
G|------------------------------------------------------------------------------------|
D|-2-2-2-2-2--------------------------------------------------------------------------|
A|-2-2-2-2-2--2-2---------------------------------------------------------------------|
E|-0-0-0-0-0--3-3---------------------------------------------------------------------|