Nini Camps - Come Away Text Guitar Tab

Learn the song with the online tablature player
Intro

--------------------------------------------------------------------|
--------------------------------------------------------------------|
----0---0---0---0---0---0---0---0---0---0---0---0---0---0---0---0---|
--------------------------------------------------------------------|
--3---3---3---3---0---0---0---0---2---2---2---2---2---2---2---2-----|
--------------------------------------------------------------------|
                                                                        }  x3
--------------------------------------------------------------------|
--------------------------------------------------------------------|
----0---0---0---0---0---0---0---0---0---0---0---0-------------------|
----------------------------------------------------4---4---4---4---|
--3---3---3---3---0---0---0---0---2---2---2---2---5---5---5---5-----|
--------------------------------------------------------------------|

The verses are just these chords over and over:
C   Am   Em   Em
C   Am   Em   D

And the chorus is just these:
C   Am   Em   D
C   Am   Em   D

And eventually the ends on Em