Nirvana - Breed Text Guitar Tab

Learn the song with the online tablature player
                             Breed - Nirvana - Nevermind

LISTEN TO THE CD FOR THE TIMING.

::GUITAR FEEDBACK::

::INTRO/RIFF 1::
  F#5  E5  F#5  A5  E5
|-----------------------|-
|-----------------------|-
|-----------------------|-    REPEAT 16 TIMES
|-4-4---2---4---/7---2--|-
|-4-4---2---4---/7---2--|-
|-2-2---0---2---/5---0--|-

::VERSE 1(rough timing; just pick the string fast)::
 I dont care,i dont care,i dont care,i dont care,i dont care, care if im old
|--------------------------------------------------------------------------|-
|--------------------------------------------------------------------------|-
|--------------------------------------------------------------------------|-
|11-11-11-11-11-11-11-11-11-11-11-11-11-11-11-11-11-11-11-11-11-11-11-11-9~|-
|--------------------------------------------------------------------------|-
|--------------------------------------------------------------------------|-

I don't mind, I don't mind, I don't mind, I don't mind, I don't mind, mind
|--------------------------------------------------------------------------|-
|--------------------------------------------------------------------------|-
|--------------------------------------------------------------------------|-
|11-11-11-11-11-11-11-11-11-11-11-11-11-11-11-11-11-11-11-11-11-11-11-11-9~|-
|--------------------------------------------------------------------------|-
|--------------------------------------------------------------------------|-| if I don't have a mind. |
|-------------------------|-
|-------------------------|-
|-------------------------|-
|11-11-11-11-11-11--9~~~--|-
|-------------------------|-
|-------------------------|-

Get away, get away, get away, get away, way, way from your house.
|--------------------------------------------------------------------|-
|--------------------------------------------------------------------|-
|--------------------------------------------------------------------|-
|11-11-11-11-11-11-11-11-11-11-11-11-11-11-11-11-11-11-11--9~~~~-----|-
|--------------------------------------------------------------------|-
|--------------------------------------------------------------------|-

Im afraid, im afraid, im afraid, im afraid, afraid ghost___________
|--------------------------------------------------------------------|-
|--------------------------------------------------------------------|-
|--------------------------------------------------------------------|-
|11-11-11-11-11-11-11-11-11-11-11-11-11-11-11-11-11--9~--------------|-
|--------------------------------------------------------------------|-
|--------------------------------------------------------------------|-

::CHORUS 1::
 D5     A5         C5     B5
 You to have,      you to me,
|----------------|--------------|-
|----------------|--------------|-
|-7-7-7-2--------|-5-5-5--3-----|-
|-7-7-7-2--------|-5-5-5--3-----|-
|-5-5-5-0--------|-3-3-3--1-----|-
|----------------|--------------|-

  D5               A5         C5               B5
  I don't mean to stare,      we don't have to breed,
|---------------------------|--------------------------|-
|---------------------------|--------------------------|-
|-7---7---7---7---2-----2--2|-5---5---5---5----3----3-3|-
|-7---7---7---7---2-----2--2|-5---5---5---5----3----3-3|-
|-5---5---5---5---0-----0--0|-3---3---3---3----1----1-1|-
|---------------------------|--------------------------|-

  D5             A5           C5             B5
  We can plant a house,       we can build a tree,
|---------------------------|--------------------------|-
|---------------------------|--------------------------|-
|-7---7---7---7--2-----2--2-|-5---5---5---5--3-----3--3|-
|-7---7---7---7--2-----2--2-|-5---5---5---5--3-----3--3|-
|-5---5---5---5--0-----0--0-|-3---3---3---3--1-----1--1|-
|---------------------------|--------------------------|-

  D5             A5           C5                B5
  I don't even   care,        we could have all three.
|---------------------------|-----------------------------|-
|---------------------------|-----------------------------|-
|-7---7---7---7--2-----2--2-|-5---5---5---5-----3-----3--3|-
|-7---7---7---7--2-----2--2-|-5---5---5---5-----3-----3--3|-
|-5---5---5---5--0-----0--0-|-3---3---3---3-----1-----1--1|-
|---------------------------|-----------------------------|-

::BRIDGE 1::
  F#5  E5  F#5  A5  E5    F#5  E5  F#5  A5  E5
                     She said,               she said,
|-----------------------|-----------------------|-
|-----------------------|-----------------------|-
|-----------------------|-----------------------|-
|-4-4---2---4---/7---2--|-4-4---2---4---/7---2--|-
|-4-4---2---4---/7---2--|-4-4---2---4---/7---2--|-
|-2-2---0---2---/5---0--|-2-2---0---2---/5---0--|-

  F#5  E5  F#5  A5  E5    F#5  E5  F#5  A5  E5
                     She said,               she said,
|-----------------------|-----------------------|-
|-----------------------|-----------------------|-
|-----------------------|-----------------------|-
|-4-4---2---4---/7---2--|-4-4---2---4---/7---2--|-
|-4-4---2---4---/7---2--|-4-4---2---4---/7---2--|-
|-2-2---0---2---/5---0--|-2-2---0---2---/5---0--|-

  F#5  E5  F#5  A5  E5    F#5  E5  F#5  A5  E5
                     She said,               she said,
|-----------------------|-----------------------|-
|-----------------------|-----------------------|-
|-----------------------|-----------------------|-
|-4-4---2---4---/7---2--|-4-4---2---4---/7---2--|-
|-4-4---2---4---/7---2--|-4-4---2---4---/7---2--|-
|-2-2---0---2---/5---0--|-2-2---0---2---/5---0--|-

  F#5  E5  F#5  A5  E5    F#5  E5  F#5  A5  E5
                     She said,               she said________
|-----------------------|-----------------------|-
|-----------------------|-----------------------|-
|-----------------------|-----------------------|-
|-4-4---2---4---/7---2--|-4-4---2---4---/7---2--|-
|-4-4---2---4---/7---2--|-4-4---2---4---/7---2--|-
|-2-2---0---2---/5---0--|-2-2---0---2---/5---0--|-

::VERSE 2::
 I dont care,i dont care,i dont care,i dont care,i dont care, care if im old
|--------------------------------------------------------------------------|-
|--------------------------------------------------------------------------|-
|--------------------------------------------------------------------------|-
|11-11-11-11-11-11-11-11-11-11-11-11-11-11-11-11-11-11-11-11-11-11-11-11-9~|-
|--------------------------------------------------------------------------|-
|--------------------------------------------------------------------------|-

I don't mind, I don't mind, I don't mind, I don't mind, I don't mind, mind
|--------------------------------------------------------------------------|-
|--------------------------------------------------------------------------|-
|--------------------------------------------------------------------------|-
|11-11-11-11-11-11-11-11-11-11-11-11-11-11-11-11-11-11-11-11-11-11-11-11-9~|-
|--------------------------------------------------------------------------|-
|--------------------------------------------------------------------------|-| if I don't have a mind. |
|-------------------------|-
|-------------------------|-
|-------------------------|-
|11-11-11-11-11-11--9~~~--|-
|-------------------------|-
|-------------------------|-

Get away, get away, get away, get away, way, way from your house.
|--------------------------------------------------------------------|-
|--------------------------------------------------------------------|-
|--------------------------------------------------------------------|-
|11-11-11-11-11-11-11-11-11-11-11-11-11-11-11-11-11-11-11--9~~~~-----|-
|--------------------------------------------------------------------|-
|--------------------------------------------------------------------|-

Im afraid, im afraid, im afraid, im afraid, afraid ghost___________
|--------------------------------------------------------------------|-
|--------------------------------------------------------------------|-
|--------------------------------------------------------------------|-
|11-11-11-11-11-11-11-11-11-11-11-11-11-11-11-11-11--9b~~------------|-
|--------------------------------------------------------------------|-
|--------------------------------------------------------------------|-

::CHORUS 2::
 D5     A5         C5     B5
 You to have,      you to me,
|----------------|--------------|-
|----------------|--------------|-
|-7-7-7-2--------|-5-5-5--3-----|-
|-7-7-7-2--------|-5-5-5--3-----|-
|-5-5-5-0--------|-3-3-3--1-----|-
|----------------|--------------|-

  D5               A5         C5               B5
  I don't mean to stare,      we don't have to breed,
|---------------------------|--------------------------|-
|---------------------------|--------------------------|-
|-7---7---7---7---2-----2--2|-5---5---5---5----3----3-3|-
|-7---7---7---7---2-----2--2|-5---5---5---5----3----3-3|-
|-5---5---5---5---0-----0--0|-3---3---3---3----1----1-1|-
|---------------------------|--------------------------|-

  D5             A5           C5             B5
  We can plant a house,       we can build a tree,
|---------------------------|--------------------------|-
|---------------------------|--------------------------|-
|-7---7---7---7--2-----2--2-|-5---5---5---5--3-----3--3|-
|-7---7---7---7--2-----2--2-|-5---5---5---5--3-----3--3|-
|-5---5---5---5--0-----0--0-|-3---3---3---3--1-----1--1|-
|---------------------------|--------------------------|-

  D5             A5           C5                B5
  I don't even   care,        we could have all three.
|---------------------------|-----------------------------|-
|---------------------------|-----------------------------|-
|-7---7---7---7--2-----2--2-|-5---5---5---5-----3-----3--3|-
|-7---7---7---7--2-----2--2-|-5---5---5---5-----3-----3--3|-
|-5---5---5---5--0-----0--0-|-3---3---3---3-----1-----1--1|-
|---------------------------|-----------------------------|-

::BRIDGE 2::
  F#5  E5  F#5  A5  E5    F#5  E5  F#5  A5  E5
                     She said,               she said,
|-----------------------|-----------------------|-
|-----------------------|-----------------------|-
|-----------------------|-----------------------|-
|-4-4---2---4---/7---2--|-4-4---2---4---/7---2--|-
|-4-4---2---4---/7---2--|-4-4---2---4---/7---2--|-
|-2-2---0---2---/5---0--|-2-2---0---2---/5---0--|-

  F#5  E5  F#5  A5  E5    F#5  E5  F#5  A5  E5
                     She said,               she said,
|-----------------------|-----------------------|-
|-----------------------|-----------------------|-
|-----------------------|-----------------------|-
|-4-4---2---4---/7---2--|-4-4---2---4---/7---2--|-
|-4-4---2---4---/7---2--|-4-4---2---4---/7---2--|-
|-2-2---0---2---/5---0--|-2-2---0---2---/5---0--|-

  F#5  E5  F#5  A5  E5    F#5  E5  F#5  A5  E5
                     She said,               she said,
|-----------------------|-----------------------|-
|-----------------------|-----------------------|-
|-----------------------|-----------------------|-
|-4-4---2---4---/7---2--|-4-4---2---4---/7---2--|-
|-4-4---2---4---/7---2--|-4-4---2---4---/7---2--|-
|-2-2---0---2---/5---0--|-2-2---0---2---/5---0--|-

  F#5  E5  F#5  A5  E5    F#5  E5  F#5  A5  E5
                     She said,               she said________
|-----------------------|-----------------------|-
|-----------------------|-----------------------|-
|-----------------------|-----------------------|-
|-4-4---2---4---/7---2--|-4-4---2---4---/7---2--|-
|-4-4---2---4---/7---2--|-4-4---2---4---/7---2--|-
|-2-2---0---2---/5---0--|-2-2---0---2---/5---0--|-

::SOLO (Strum real fast)::
_____
|--0--0--0--0--0--0--0--0--0--0--0--0--0--0--0--0--0--0--0--0--0--0--0--0--|
|-/11-11-11-11-11-11-11-11-11-11-11-11-11-11-11-11-11-11-11-11-11-11-11-11\|
|-/12-12-12-12-12-12-12-12-12-12-12-12-12-12-12-12-12-12-12-12-12-12-12-12\|
|-/13-13-13-13-13-13-13-13-13-13-13-13-13-13-13-13-13-13-13-13-13-13-13-13\|
|--------------------------------------------------------------------------|
|--------------------------------------------------------------------------|
||                                                                        ||
|--0--0--0--0--0--0--0--0--0--0--0--0--0--0--0--0--0--0--0--0--0--0--0--0--|
|-/13-13-13-13-13-13-13-13-13-13-13-13-13-13-13-13-13-13-13-13-13-13-13-13\|
|-/14-14-14-14-14-14-14-14-14-14-14-14-14-14-14-14-14-14-14-14-14-14-14-14\|
|-/15-15-15-15-15-15-15-15-15-15-15-15-15-15-15-15-15-15-15-15-15-15-15-15\|
|--------------------------------------------------------------------------|
|--------------------------------------------------------------------------|
||                                                                        ||
|--0--0--0--0--0--0--0--0--0--0--0--0--0--0--0--0--0--0--0--0--0--0--0--0--|
|-/16-16-16-16-16-16-16-16-16-16-16-16-16-16-16-16-16-16-16-16-16-16-16-16\|
|-/17-17-17-17-17-17-17-17-17-17-17-17-17-17-17-17-17-17-17-17-17-17-17-17\|
|-/18-18-18-18-18-18-18-18-18-18-18-18-18-18-18-18-18-18-18-18-18-18-18-18\|
|--------------------------------------------------------------------------|
|--------------------------------------------------------------------------|
||                                 ||
|--0--0--0--0--0--0--0--0--0--0--0--|
|-/17-17-17-17-17-17-17-17-17-17-17\|
|-/18-18-18-18-18-18-18-18-18-18-18\|
|-/19-19-19-19-19-19-19-19-19-19-19\|
|-----------------------------------|
|-----------------------------------|
||                                 ||
|--0--0--0--0--0--0--0--0--0--0-----|
|-/18-18-18-18-18-18-18-18-18-18\---|
|-/19-19-19-19-19-19-19-19-19-19\---|
|-/20-20-20-20-20-20-20-20-20-20\---|
|-----------------------------------|
|-----------------------------------|

::CHORUS 3::
 D5     A5         C5     B5
 You to have,      you to me,
|----------------|--------------|-
|----------------|--------------|-
|-7-7-7-2--------|-5-5-5--3-----|-
|-7-7-7-2--------|-5-5-5--3-----|-
|-5-5-5-0--------|-3-3-3--1-----|-
|----------------|--------------|-

  D5               A5         C5               B5
  I don't mean to stare,      we don't have to breed,
|---------------------------|--------------------------|-
|---------------------------|--------------------------|-
|-7---7---7---7---2-----2--2|-5---5---5---5----3----3-3|-
|-7---7---7---7---2-----2--2|-5---5---5---5----3----3-3|-
|-5---5---5---5---0-----0--0|-3---3---3---3----1----1-1|-
|---------------------------|--------------------------|-

  D5             A5           C5             B5
  We can plant a house,       we can build a tree,
|---------------------------|--------------------------|-
|---------------------------|--------------------------|-
|-7---7---7---7--2-----2--2-|-5---5---5---5--3-----3--3|-
|-7---7---7---7--2-----2--2-|-5---5---5---5--3-----3--3|-
|-5---5---5---5--0-----0--0-|-3---3---3---3--1-----1--1|-
|---------------------------|--------------------------|-

  D5             A5           C5                B5
  I don't even   care,        we could have all three.
|---------------------------|-----------------------------|-
|---------------------------|-----------------------------|-
|-7---7---7---7--2-----2--2-|-5---5---5---5-----3-----3--3|-
|-7---7---7---7--2-----2--2-|-5---5---5---5-----3-----3--3|-
|-5---5---5---5--0-----0--0-|-3---3---3---3-----1-----1--1|-
|---------------------------|-----------------------------|-

::BRIDGE 3/OUTRO::
  F#5  E5  F#5  A5  E5    F#5  E5  F#5  A5  E5
                     She said,               she said,
|-----------------------|-----------------------|-
|-----------------------|-----------------------|-
|-----------------------|-----------------------|-
|-4-4---2---4---/7---2--|-4-4---2---4---/7---2--|-
|-4-4---2---4---/7---2--|-4-4---2---4---/7---2--|-
|-2-2---0---2---/5---0--|-2-2---0---2---/5---0--|-

  F#5  E5  F#5  A5  E5    F#5  E5  F#5  A5  E5
                     She said,               she said,
|-----------------------|-----------------------|-
|-----------------------|-----------------------|-
|-----------------------|-----------------------|-
|-4-4---2---4---/7---2--|-4-4---2---4---/7---2--|-
|-4-4---2---4---/7---2--|-4-4---2---4---/7---2--|-
|-2-2---0---2---/5---0--|-2-2---0---2---/5---0--|-

  F#5  E5  F#5  A5  E5    F#5  E5  F#5  A5  E5
                     She said,               she said,
|-----------------------|-----------------------|-
|-----------------------|-----------------------|-
|-----------------------|-----------------------|-
|-4-4---2---4---/7---2--|-4-4---2---4---/7---2--|-
|-4-4---2---4---/7---2--|-4-4---2---4---/7---2--|-
|-2-2---0---2---/5---0--|-2-2---0---2---/5---0--|-

  F#5  E5  F#5  A5  E5    F#5  E5  F#5  A5  E5
                     She said,               she said________
|-----------------------|-----------------------|-
|-----------------------|-----------------------|-
|-----------------------|-----------------------|-
|-4-4---2---4---/7---2--|-4-4---2---4---/7---2--|-
|-4-4---2---4---/7---2--|-4-4---2---4---/7---2--|-
|-2-2---0---2---/5---0--|-2-2---0---2---/5---0--|-

::END ON::
E5
        Dude!______

| /  slide up
| \  slide down
| h  hammer-on
| p  pull-off
| ~  vibrato
| +  harmonic
| x  Mute note