Nitro - Heavens Just A Heartbeat Away Text Guitar Tab

Learn the song with the online tablature player
Michael ANgelo tabs are very tough to ascribe.
Well this song isin't technically such a hard one. But a solo full of melody
i hope this goes in some usefulness to u
Sounds close however

/slide in
\slide out
~ Vibrato
V - vibrato(tremelo type)
b - bend
* - (dampen)stop on that note/after hitting it wid ur palm

song on scale of C#m

the fast run based on G# phrgian,or u can improvise it

e---(vocal-part-away)--------------------------------------------|
b--15B--15B------------/12VVVVVV---------------------------------|
g----------------------------------------/4~~~~~~~~~\------------|
d----------------------------------------------------------------|
a----------------------------------------------------------------|
e----------------------------------------------------------------|

take a breadth

e--------12-16~~~16h17-16~-----------------------------------------|
b-----14-------------------16-16/19-17~-16~-14~--12h14-9~-9~~------|
g--13--------------------------------------------------------------|
d------------------------------------------------------------------|
a------------------------------------------------------------------|
e------------------------------------------------------------------|

------16*--19b-19*-19v---21*-21b-20-20-19--17-17h19--14-16vv------|
---17-------------------------------------------------------------|
18----------------------------------------------------------------|
------------------------------------------------------------------|
------------------------------------------------------------------|
------------------------------------------------------------------|

-14h16----19b-19*-19~~~~--------------------|
-------16-----------------------------------|
--------------------------------------------|
--------------------------------------------|
--------------------------------------------|
--------------------------------------------|

fast run
--16-17-19-17-16------------------------------------------------|
-----------------19-17-16-17-19-17-16---------------------------|
-----------------------------------------16-14-13---------------|
--------------------------------------------------16-14-13------|
----------------------------------------------------------------|
----------------------------------------------------------------|

-----------------------------------------------------------------|
-----------------------------------------------------------------|
----------------------------------------------------13-14-16-----|
-----------------------------------------13-14-16----------------|
--13-12-10----------------------10-12-13-------------------------|
-----------13-12-10---10-12-13-----------------------------------|

--------12-16p12----------12-17p12-------------------------|
-----14----------14----14----------14----------------------|
-13-----------------13----------------13-------------------|
-----------------------------------------14----------------|
--------------------------------------------16~~~~~--------|
-----------------------------------------------------------|

---------16--19b-19-19~--16-19---21B-21*-21----------------------|~~~~~~~~~~~(sustain)
------17---------------------------------------------------------|
--18-------------------------------------------------------------|
-----------------------------------------------------------------|
-----------------------------------------------------------------|
-----------------------------------------------------------------|

regards