Njord - Fornstora Dagar Text Guitar Tab

Learn the song with the online tablature player
Njord - Fornstora Dagar

. = Palm-mute

INTRO

|------------------------------------|
|------------------------------------|
|------------------------------------|
|-4/5-5-5--4/5-5-5--4/5/4/5/4/5-5-5--|
|-4/5-5-5--4/5-5-5--4/5/4/5/4/5-5-5--|
|-2/3-3-3--2/3-3-3--2/3/2/3/2/3-3-3--|

|-----------------------------------------------------------------|
|-----------------------------------------------------------------|
|-----------------------------------------------------------------|
|-5----------------5---------------5------5------5----5----5----5-|
|-5----------------5---------------5------5------5----5----5----5-|
|-3-33333333333333-3-3333333333333-3-3333-3-3333-3-33-3-33-3-33-3-|
    ..............   .............   ....   ....   ..   ..   ..

RIFF

Gtr1
|-----------------------------------------------------|
|-----------------------------------------------------|
|------------4-2---------2--5-5-55-55-4-2-------------|
|---5-5-55-5-----5-4-4-5------------------5-7-5-7-5---|
|-5---------------------------------------------------|
|-----------------------------------------------------|

|-----------------------------------------------------|
|-----------------------------------------------------|
|------------4-2---------2--5-5-55-55-4-2-------------|
|---5-5-55-5-----5-4-4-5------------------5-----------|
|-5---------------------------------------------------|
|-----------------------------------------------------|

Gtr2
|-----------------------------------------------------------------|
|-----------------------------------------------------------------|
|-----------------7-7-7-7-7-7-7-7-5-5-5-5-7-7-7-7-----------------|
|-5-5-5-5-5-5-5-5-7-7-7-7-7-7-7-7-5-5-5-5-7-7-7-7-5-5-5-5-5-5-5-5-| x2
|-5-5-5-5-5-5-5-5-5-5-5-5-5-5-5-5-3-3-3-3-5-5-5-5-5-5-5-5-5-5-5-5-|
|-3-3-3-3-3-3-3-3---------------------------------3-3-3-3-3-3-3-3-|

VERSE

|--------------------------------------------------|
|--------------------------------------------------|
|-------------7----------5------7------------------|
|-5-----------7----------5------7------5-----5-5---|
|-5-----------5-55555555-3-3333-5-5555-5-----5-5---|
|-3-333333333--------------------------3-33333333--|
    .........   ........   ....   ....   .... . .

|--------------------------------------------------|
|--------------------------------------------------|
|-------------7----------5------7------------------|
|-5-----------7----------5------7------5-5-5-5-5---|
|-5-----------5-55555555-3-3333-5-5555-5-5-5-5-5---|
|-3-333333333--------------------------3-3-3-3-3---|
    .........   ........   ....   ....

CHORUS

|-----------------------------------------------------------------|
|-----------------------------------------------------------------|
|-----------------7-7-7-7-7-7-7-7-5-5-5-5-7-7-7-7-----------------|
|-5-5-5-5-5-5-5-5-7-7-7-7-7-7-7-7-5-5-5-5-7-7-7-7-5-5-5-5-5-5-5-5-|
|-5-5-5-5-5-5-5-5-5-5-5-5-5-5-5-5-3-3-3-3-5-5-5-5-5-5-5-5-5-5-5-5-|
|-3-3-3-3-3-3-3-3---------------------------------3-3-3-3-3-3-3-3-|

|-----------------------------------------------------------------|
|-----------------------------------------------------------------|
|-----------------4-4-4-4-4-4-4-4-5-5-5-5-7-7-7-7-----------------|
|-5-5-5-5-5-5-5-5-4-4-4-4-4-4-4-4-5-5-5-5-7-7-7-7-5-5-5-5-5-5-5-5-|
|-5-5-5-5-5-5-5-5-2-2-2-2-2-2-2-2-3-3-3-3-5-5-5-5-5-5-5-5-5-5-5-5-|
|-3-3-3-3-3-3-3-3---------------------------------3-3-3-3-3-3-3-3-|

Repeat RIFF
Repeat VERSE
Repeat CHORUS
Repeat RIFF
Repeat VERSE
Repeat CHORUS x2

That's it.