Njord - Mot Himlen Text Guitar Tab

Learn the song with the online tablature player
Njord - Mot Himlen

. = Palm-mute

INTRO

Gtr1
|------------------------------------------------------------|
|------------------------------------------------------------|
|------------------------------------------------------------|
|---4-4--------------4-4-------------------------------------|  x2
|-2-----5-2-22-222-2-----5-2-22-222-4-4-4-4-4-4h5-4-2--4-2---|
|------------------------------------------------------------|

Gtr2
|-------------------------------------------------------|
|-------------------------------------------------------|
|-------------------------------------------------------|
|-------------------------------------------------------| x2
|-2222222222222222222222222--------------22222222222222-|
|--------------------------22222222222222---------------|
  .....................................................

VERSE1

|-------------------------------------------------------|
|-------------------------------------------------------|
|-4----------------------------------------------4--4-6-|
|-4----------------------------------------------4--4-6-|
|-2222222222222222222222222--------------222222222--2-4-|
|--------------------------22222222222222---------------|
   ..............................................

CHORUS

|-------------------------------------|
|-------------------------------------|
|-7-7-7-77----------4-4-4-44----------|
|-7-7-7-77-7-7-7-77-4-4-4-44-5-5-5-55-|
|-5-5-5-55-7-7-7-77-2-2-2-22-5-5-5-55-|
|----------5-5-5-55----------3-3-3-33-|

|--------------------------------|
|--------------------------------|
|-7-7-7-77----------4--4-4--2-4--|
|-7-7-7-77-7-7-7-77-4--4-4--2-4--|
|-5-5-5-55-7-7-7-77-2--2-2--0-2--|
|----------5-5-5-55--------------|

Repeat INTRO w/ harmony:

|------------------------------------------------------------|
|---7-7--------------7-7-------------------------------------|
|-4-----7-4-44-444-4-----7-4-44-444-6-6-6-6-6-6h7-6-4--2-4---|
|------------------------------------------------------------| x2
|------------------------------------------------------------|
|------------------------------------------------------------|

VERSE2

|-------------------------------------------------------|
|-------------------------------------------------------|
|-4-----------------------------------------------------|
|-4-----------------------------------------------------|
|-2222222222222222222222222--------------22222222222222-|
|--------------------------22222222222222---------------|
  .....................................................

|-------------------------------------------------------|
|-------------------------------------------------------|
|-4----------------------------------------------4--4-6-|
|-4----------------------------------------------4--4-6-|
|-2222222222222222222222222--------------222222222--2-4-|
|--------------------------22222222222222---------------|
   ..............................................

On VERSE2, there is a little bit
riffing with the power chords,
something like this:

|--------------|
|--------------|
|-4------------|
|-4------4-----|
|-2222222-222--|
|--------------|
   .... . ...

Notice the palm mutes. It's easier
to just improvise them, rather than
try to tab them out. (pretty hard to
hear them in the first place)

Repeat CHORUS
Repeat INTRO (w/ harmony)

BRIDGE

|-------------|
|-------------| Random horseplay with A, B & Gb chords
|-------------| (or "I don't have a clue")
|-------------|
|-------------|
|-------------|

Repeat VERSE1
Repeat CHORUS

No idea on SOLO, sorry :(

Repeat CHORUS

Not exactly finished, but thought I'd release what I have, maybe it'll help someone.