Nlt - Go Text Guitar Tab

Learn song with the online tabulature player
----------------------------------------------------------------------------
                             Go - NLT
----------------------------------------------------------------------------
Tabbed by:me [[nltlover4life]]
Email:nlt-lover@live.com

Tuning:Standard

like i keep saying..
for some reason it always sounds better when you play it with the music...
http://youtube.com/watch?v=qjTfisPRRY8

e|-----------------------------------------|
B|-----------------------------------------|
G|-------3-4-------4-5-------3-4-------4-5-|
D|-----5---------6---------5---------6-----|
A|---3---------4---------3---------4-------|
E|-3---------4---------3---------4---------|
and once agian this is the whole song
right here...