No Address - How Could I Text Guitar Tab

Learn song with the online tabulature player
"How Could I?" - No Address
Tabbed By: Josh

This is my first tab, so don't laugh if its bad.

Intro. Gtr. 1 w/distortion
e|--------------------------|
B|--------------------------|
G|--------------------------|
D|-3-3--3-3-3--3-3-3--3-3-6-|
A|-3-3--3-3-3--3-3-3--3-3-6-|
E|-1-1--1-1-1--1-1-1--1-1-4-|

Gtr. 1 plays intro once then gtr. 2 joins in playing same thing for a while.

Chorus
e|----------------------|
B|----------------------|
G|--6-6-----------------|
D|--6-6--5-5--2-2--4-4--|
A|--4-4--5-5--2-2--4-4--|
E|-------3-3--0-0--2-2--|

Listen to the song yourself to figure out timing and everything. It's got a pretty good 
for a post-grunge/alternative rock band
You can listen to them at www.no-address.net or myspace.com/noaddress
If you have any suggestions or if I messed up, then email me at ja_soad45@yahoo.com