No Age - Neck Scaper Text Guitar Tab

Learn the song with the online tablature player
No Age - Neck Scaper

Verse
-------      -------|
-----7-      -----5-|
---8--- x16  ---6---| x16
-9-----      -7-----|
-------      -------|
-------      -------|

Chorus
follow the rhythm)
-7/11-11-11-9-7-9-9-9-7----------------------7-|
------------------------9-7-9-9-9-7--7-9-9-9---|
------------------------------------9----------| x 'til the end
-----------------------------------------------|
-----------------------------------------------|
-----------------------------------------------|