No Doubt - Beauty Contest Text Guitar Tab

Learn the song with the online tablature player
                         BEAUTY CONTEST - No Doubt

Intro

e|---------------------------------|
B|------3----------------6---------|
G|---------3--2-------------5--2---|
D|---0----------------3------------|
A|---------------------------------|
E|---------------------------------|
   pm............................

*During the chorus there are two guitars, the first plays straight chords
and the second has this little riff going on. Its really easy to get them
at the right time if you listen to the song a few times.

Chorus 1

e|----------------------------|---Last-Time---|
B|----------------------------|---------------|
G|---7------9-----10------9---|--10---9---7---|
D|---7------9-----10------9---|--10---9---7---|
A|---5------7------8------7---|---8---7---5---|
E|----------------------------|---------------|
  *I'm pretty sure Tom uses    *But not here.
   a wah effect here.

Chorus 2

e|------------------------------------|
B|------------------------------------|
G|------------------------------------|
D|---12~---14h15p14---12---14---12~---|
A|------------------------------------|
E|------------------------------------|

Bridge Pt. 1

e|--------------------------------|
B|---11------10------11------10---|
G|---11------10------11------10---|
D|---11------10------11------10---|
A|----9-------8-------9-------8---|
E|--------------------------------|

Bridge Pt. 2

e|---------------------------|
B|---------------------------|
G|---------------------------|
D|---------------------5-5---|
A|---5---8-8---7-7-7---------|
E|---------------------------|

Bridge Pt. 3

e|----------------|
B|----------------|
G|------3--2------|
D|---0--------3---|
A|----------------|
E|----------------|

Ending 1

e|----------|
B|----------|
G|----------|
D|----------|
A|------5---|
E|---5------|

Ending 2

e|------------------------------------|
B|------------------------------------|
G|------------------------------------|
D|---12--14--15--14h15p14--12--14--12-|
A|------------------------------------|
E|------------------------------------|

Song Order:

Intro x4
No Palm Mute)
Intro x4

Intro x4
No Palm Mute)

Chorus 1 x4 + Chorus 2 x2

Intro x6
No Palm Mute)

Chorus 1 x4 + Chorus 2 x2

Chorus Last Time x1 (So you play the last part twice.)
Bridge Pt. 1 x2
Bridge Pt. 2 x8
Bridge Pt. 3 x4

Chorus 1 x16 + Chorus 2 x8

Ending 1 x8 + Ending 2 x2

Well, I hope all you guys like this No Doubt song. Its very accurate as far
as I can tell and I hope the song order doesn't confuse you too much!
Remember: When it says "+" something, that's because there are either
two guitars there or a guitar and a bass part that a tabbed for the guitar.

| /  Slide up
| \  Slide down
| h  Hammer-on
| p  Pull-off
| ~  Vibrato
| +  Harmonic
| x  Mute note
| .  Palm mute