No Doubt - Snakes Text Guitar Tab

Learn the song with the online tablature player
E|--------------|
B|--------------|
G|--------------|
D|-2-2----2-2---|
A|-2-2----2-2---|
E|-0-0----0-0---|

E|----------------------------------|
B|----------------------------------|
G|----------------------------------|X2
D|-2-2-2-4-5--4-5-4-2-2-2-----------|
A|-2-2----------------2-2---2-3-2~--|
E|-0-0----------------0-0-----------|

E|-----------------------------------|
B|-----------------------------------|
G|-2-2-2-3-2-------------------------|X2
D|-2-2-------3-2---------------------|
A|-0-0-----------3-2-----------------|
E|-------------------3---------------|

E|--------------|
B|--------------|
G|--------------|
D|-2-2----2-2---|
A|-2-2----2-2---|
E|-0-0----0-0---|

E|----------------------------------|
B|----------------------------------|
G|----------------------------------|X2
D|-2-2-2-4-5--4-5-4-2-2-2-----------|
A|-2-2----------------2-2---2-3-2~--|
E|-0-0----------------0-0-----------|

E|--------------|
B|--------------|
G|--------------|X2
D|-2-2----2-2---|
A|-2-2----2-2---|
E|-0-0----0-0---|

E|--------------|
B|--------------|
G|-2-2----2-2---|X2
D|-2-2----2-2---|
A|-0-0----0-0---|
E|--------------|

E|--------------|
B|--------------|
G|--------------|X2
D|-2-2----2-2---|
A|-2-2----2-2---|
E|-0-0----0-0---|

E|----------------------------------|
B|----------------------------------|
G|----------------------------------|X2
D|-2-2-2-4-5--4-5-4-2-2-2-----------|
A|-2-2----------------2-2---2-3-2~--|
E|-0-0----------------0-0-----------|

E|-----------------------------------|
B|-----------------------------------|
G|-2-2-2-3-2-------------------------|X2
D|-2-2-------3-2---------------------|
A|-0-0-----------3-2-----------------|
E|-------------------3---------------|

E|--------------|
B|--------------|
G|--------------|
D|-2-2----2-2---|
A|-2-2----2-2---|
E|-0-0----0-0---|

(figure out strumming yourself)
E|--7---5----7----5----7---5----3----5--|
B|--7---5----7----5----7---5----3----5--|
G|--7---6----7----6----7---6----4----6--|
D|--9---7----9----7----9---7----5----7--|
A|--9---7----9----7----9---7----5----7--|
E|--7---5----7----5----7---5----3----5--|

E|----------------------------------|
B|----------------------------------|
G|----------------------------------|X2
D|-2-2-2-4-5--4-5-4-2-2-2-----------|
A|-2-2----------------2-2---2-3-2~--|
E|-0-0----------------0-0-----------|

E|-----------------------------------|
B|-----------------------------------|
G|-2-2-2-3-2-------------------------|X2
D|-2-2-------3-2---------------------|
A|-0-0-----------3-2-----------------|
E|-------------------3---------------|

E|--------------|
B|--------------|
G|--------------|
D|-2-2--XX2-2---|
A|-2-2--XX2-2---|
E|-0-0--XX0-0---|

E|--7---5----7----5----7---5----3----5--|
B|--7---5----7----5----7---5----3----5--|
G|--7---6----7----6----7---6----4----6--|
D|--9---7----9----7----9---7----5----7--|
A|--9---7----9----7----9---7----5----7--|
E|--7---5----7----5----7---5----3----5--|

Solo

E|-------------------------------|
B|-11b--r8-------7/8/12\8\7/8\7--|
G|-------------------------------|
D|-------------------------------|
A|-------------------------------|
E|-------------------------------|

E|------fast pickin here--------------------------|
B|------------------------------------------------|
G|-12-12\11\9\8/9\8\5\4\5\8-----8/9--9/11--11/12--|
D|------------------------------------------------|
A|------------------------------------------------|
E|------------------------------------------------|

E|-7-5-----7-5---------------------------------------------------|
B|-----8-7-----8-7-8-7h8p7p5-------------------------------------|
G|---------------------------7-5h7-5h7p5\4-5p4-------------------|
D|---------------------------------------------7-5-4h5p4---4-----|
A|-------------------------------------------------------7---5h7-|
E|---------------------------------------------------------------|

E|-----------------------------------------------------------------|
B|-------------------------------------------------------4h5/7-/8--|
G|-------------------------4h5p4h5p4---4-----4h5---4h5h7-----------|
D|-4h5p4h5p4---4-----4h5h7-----------7---5h7-----7-----------------|
A|-----------7---5h7-----------------------------------------------|
E|-----------------------------------------------------------------|

E|---7-------------------------------------------------------|
B|-8----8-8-8/10-10-10-10-10/12-12-12-12-12-12/15-15-15-15\--|
G|-----------------------------------------------------------|
D|-----------------------------------------------------------|
A|-----------------------------------------------------------|
E|-----------------------------------------------------------|

     |_______X2________|
E|-0-|-----------------|
B|-0-|-----------------|
G|-0-|-----------------|
D|-2-|---2h3-2h3-2-0---|
A|---|-----------------|
E|---|-----------------|

 |_________X2__________|
E|---------------------|
B|---------------------|
G|---------------------|
D|---2-2h3p2-0---------|
A|-------------2~------|
E|---------------------|

E|--7---5----7----5----7---5----3----5--|
B|--7---5----7----5----7---5----3----5--|
G|--7---6----7----6----7---6----4----6--|X2
D|--9---7----9----7----9---7----5----7--|
A|--9---7----9----7----9---7----5----7--|
E|--7---5----7----5----7---5----3----5--|

E|--------------|
B|--------------|
G|--------------|X1
D|-2-2----2-2---|
A|-2-2----2-2---|
E|-0-0----0-0---|

     |___repeat as neccesary___|
E|-0-|---2~-2h3p2--------------|
B|-0-|-------------------------|
G|-0-|-------------------------|
D|-2-|-------------------------|
A|---|-------------------------|
E|---|-------------------------|

i hope thats good enough for you.
please rate & comment-good or bad- but enjoy!
???'s, comments, whatever